Pillows - Back Seat Dog Chords & Tabs

 

Back Seat Dog Chords & Tabs

Pillows Chords & Tabs

Version: 1 Type: Bass Tab 0 ratings
1 star 2 stars 3 stars 4 stars 5 stars
comments

Back Seat Dog Bass Tab

   
Back Seat Dog
The Pillows
sinophilic

(00:00) - intro
 |1 + 2 + 3 + 4 +|1 + 2 + 3 + 4 +|1 + 2 + 3 + 4 +|1 + 2 + 3 + 4 +|
G----------------|---------------|---------------|---------------|
D---------4-5-6-7|---------------|---------------|---------------|
A-5-----5--------|-4----4-4-5-7--|2-----2-----2-5|---------------| (2x)
E----------------|---------------|----------5----|3-----3-5-0-3-5|
                                                  b
(00:14) - Verse 1
 |1 + 2 + 3 + 4 +|1 + 2 + 3 + 4 +|1 + 2 + 3 + 4 +|1 + 2 + 3 + 4 +|
G----------------|---------------|---------------|---------------|
D----------------|---------------|---------------|---------------|
A-5-----5---5---5|------------4--|2-----2---2---2|---------------|
E----------------|5-----5---5---5|------------2--|3-----3-5-0-3-5|
 |1 + 2 + 3 + 4 +|1 + 2 + 3 + 4 +|1 + 2 + 3 + 4 +|1 + 2 + 3 + 4 +|
G----------------|---------------|---------------|---------------|
D---------4-5-6-7|---------------|---------------|---------------|
A-5-----5--------|-4----4-4-5-7--|2-----2-----2-5|---------------| (2x)
E----------------|---------------|----------5----|3-----3-5-0-3-5|
(00:43) - pre chorus
 |1 + 2 + 3 + 4 +|1 + 2 + 3 + 4 +|1 + 2 + 3 + 4 +|1 + 2 + 3 + 4 +|
G----------------|---------------|---------------|---------------|
D----------------|---------------|---------------|---------------|
A----------------|---------------|---------------|5--------------|
E-2--------------|3--------------|5--------------|--------5------|
(00:51) - chorus
 |1 + 2 + 3 + 4 +|1 + 2 + 3 + 4 +|1 + 2 + 3 + 4 +|1 + 2 + 3 + 4 +|
G----------------|---------------|---------------|---------------|
D----------------|---------------|---------------|---------------|
A-----2-------4-7|5-----5--------|----2-------4-7|5-----5--------|
E-3-3---3-5-5----|--------2-2-3-5|3-3---3-5-5----|--------2-2-3-5|

 |1 + 2 + 3 + 4 +|1 + 2 + 3 + 4 +|1 + 2 + 3 + 4 +|1 + 2 + 3 + 4 +|
G----------------|---------------|---------------|---------------|
D----------------|--------7-5-4--|---------------|--------2-2-2-2|
A-----2-------4-7|5-----5-------7|2-2-2-2-2-2-2-2|5-5-5-5--------|
E-3-3---3-5-5----|---------------|---------------|---------------|
(01:05) - bridge
 |1 + 2 + 3 + 4 +|1 + 2 + 3 + 4 +|1 + 2 + 3 + 4 +|1 + 2 + 3 + 4 +|
G----------------|---------------|---------------|---------------|
D---------4-5-6-7|---------------|---------------|---------------|
A-5-5---5--------|-4----4-4-5-7--|2-----2-----2-5|---------------|
E----------------|---------------|----------5----|3-----3-5-0-3-5|
 |1 + 2 + 3 + 4 +|1 + 2 + 3 + 4 +|1 + 2 + 3 + 4 +|1 + 2 + 3 + 4 +|
G----------------|---------------|---------------|---------------|
D---------4-5-6-7|---------------|--------------4|5-----4-5------|
A-5-----5--------|-4----4-4-5-7--|2-----2-----2--|---------------|
E----------------|---------------|----------5----|----------5-7-4|
(01:20) - verse 2
 |1 + 2 + 3 + 4 +|1 + 2 + 3 + 4 +|1 + 2 + 3 + 4 +|1 + 2 + 3 + 4 +|
G----------------|---------------|---------------|---------------|
D----------------|---------------|---------------|---------------|
A-5-----5---5---5|------------4--|2-----2---2---2|---------------|
E----------------|5-----5---5---5|------------2--|3-----3-5-0-3-5|
 |1 + 2 + 3 + 4 +|1 + 2 + 3 + 4 +|1 + 2 + 3 + 4 +|1 + 2 + 3 + 4 +|
G----------------|---------------|---------------|---------------|
D---------4-5-6-7|---------------|---------------|---------------|
A-5-----5--------|-4----4-4-5-7--|2-----2-----2-5|---------------| (2x)
E----------------|---------------|----------5----|3-----3-5-0-3-5|
(01:48) - pre chorus
 |1 + 2 + 3 + 4 +|1 + 2 + 3 + 4 +|1 + 2 + 3 + 4 +|1 + 2 + 3 + 4 +|
G----------------|---------------|---------------|---------------|
D----------------|---------------|---------------|---------------|
A----------------|---------------|---------------|5--------------|
E-2--------------|3--------------|5--------------|--------5------|
(01:56) - chorus
 |1 + 2 + 3 + 4 +|1 + 2 + 3 + 4 +|1 + 2 + 3 + 4 +|1 + 2 + 3 + 4 +|
G----------------|---------------|---------------|---------------|
D----------------|---------------|---------------|---------------|
A-----2-------4-7|5-----5--------|----2-------4-7|5-----5--------|
E-3-3---3-5-5----|--------2-2-3-5|3-3---3-5-5----|--------2-2-3-5|
[ Tab from: http://www.guitartabs.cc/tabs/p/pillows/back_seat_dog_btab.html ]
 |1 + 2 + 3 + 4 +|1 + 2 + 3 + 4 +|1 + 2 + 3 + 4 +|1 + 2 + 3 + 4 +|
G----------------|---------------|---------------|---------------|
D----------------|--------7-5-4--|---------------|--------2-2-2-2|
A-----2-------4-7|5-----5-------7|2-2-2-2-2-2-2-2|5-5-5-5--------|
E-3-3---3-5-5----|---------------|---------------|---------------|
(02:10) - guitar solo
 |1 + 2 + 3 + 4 +|1 + 2 + 3 + 4 +|1 + 2 + 3 + 4 +|1 + 2 + 3 + 4 +|
G----------------|---------------|---------------|---------------|
D---------4-5-6-7|---------------|---------------|---------------|
A-5-----5--------|-4----4-4-5-7--|2-----2-----2-5|---------------|
E----------------|---------------|----------5----|3-----3-5-0-3-5|
 |1 + 2 + 3 + 4 +|1 + 2 + 3 + 4 +|1 + 2 + 3 + 4 +|1 + 2 + 3 + 4 +|
G----------------|---------------|---------------|---------------|
D----------------|---------------|---------------|5-5-4-4->------|   > = 2h4h2 (didnt want to
A-5-----5-----5-4|--------4-7-7--|2-----2-----2-5|---------------|              ruin beats)
E---------5-5----|5-----5--------|----------5----|------------5-0|
 |1 + 2 + 3 + 4 +|1 + 2 + 3 + 4 +|1 + 2 + 3 + 4 +|1 + 2 + 3 + 4 +|
G----------------|---------------|---------------|---------------|
D---------4-5-6-7|---------------|---------------|---------------|
A-5-----5--------|-4----4-4-5-7--|2-----2-----2-5|---------------|
E----------------|---------------|----------5----|3-----3-5-0-3-5|
 |1 + 2 + 3 + 4 +|1 + 2 + 3 + 4 +|1 + 2 + 3 + 4 +|1 + 2 + 3 + 4 +|
G----------------|---------------|---------------|---------------|
D----------------|---------------|---------------|5-5-4-4->------|   > = 2h4h2 
A-5-----5-----5-4|--------4-7-7--|2-----2-----2-5|---------------|              
E---------5-5----|5-----5--------|----------5----|------------5-0|
(02:39) - pre chorus
 |1 + 2 + 3 + 4 +|1 + 2 + 3 + 4 +|1 + 2 + 3 + 4 +|1 + 2 + 3 + 4 +|
G----------------|---------------|---------------|---------------|
D----------------|---------------|---------------|---------------|
A----------------|---------------|---------------|5--------------|
E-2--------------|3--------------|5--------------|--------5------|
(02:47) - chorus
 |1 + 2 + 3 + 4 +|1 + 2 + 3 + 4 +|1 + 2 + 3 + 4 +|1 + 2 + 3 + 4 +|
G----------------|---------------|---------------|---------------|
D----------------|---------------|---------------|---------------|
A-----2-------4-7|5-----5--------|----2-------4-7|5-----5--------|
E-3-3---3-5-5----|--------2-2-3-5|3-3---3-5-5----|--------2-2-3-5|
 |1 + 2 + 3 + 4 +|1 + 2 + 3 + 4 +|1 + 2 + 3 + 4 +|1 + 2 + 3 + 4 +|
G----------------|---------------|---------------|---------------|
D----------------|--------7-5-4--|---------------|--------2-2-2-2|
A-----2-------4-7|5-----5-------7|2-2-2-2-2-2-2-2|5-5-5-5--------|
E-3-3---3-5-5----|---------------|---------------|---------------|
(03:01) - chorus
 |1 + 2 + 3 + 4 +|1 + 2 + 3 + 4 +|1 + 2 + 3 + 4 +|1 + 2 + 3 + 4 +|
G----------------|---------------|---------------|---------------|
D----------------|---------------|---------------|---------------|
A-----2-------4-7|5-----5--------|----2-------4-7|5-----5--------|
E-3-3---3-5-5----|--------2-2-3-5|3-3---3-5-5----|--------2-2-3-5|
 |1 + 2 + 3 + 4 +|1 + 2 + 3 + 4 +|1 + 2 + 3 + 4 +|1 + 2 + 3 + 4 +|
G----------------|---------------|---------------|---------------|
D----------------|--------7-5-4--|---------------|----------5---4|
A-----2-------4-7|5-----5-------7|----2-------4-7|5-5-5-5--------|
E-3-3---3-5-5----|---------------|3-3---3-5-5----|--------3---2--|
(03:15) - outro (slow fade)
 |1 + 2 + 3 + 4 +|1 + 2 + 3 + 4 +|1 + 2 + 3 + 4 +|1 + 2 + 3 + 4 +|
G----------------|---------------|---------------|---------------|
D----------------|---------------|---------------|---------------|
A-----2-------4-7|5-----5--------|----2-------4-7|5-----5--------|
E-3-3---3-5-5----|--------2-2-3-5|3-3---3-5-5----|--------2-2-3-5|
 |1 + 2 + 3 + 4 +|1 + 2 + 3 + 4 +|1 + 2 + 3 + 4 +|1 + 2 + 3 + 4 +|
G----------------|---------------|---------------|---------------|
D----------------|---------------|---------------|--------7-5-3--|
A-----2-------4-7|5-----5--------|----2-------4-7|5-----5-------7|
E-3-3---3-5-5----|--------2-2-3-5|3-3---3-5-5----|---------------|
(03:30) - outro (continued more fading)
 |1 + 2 + 3 + 4 +|1 + 2 + 3 + 4 +|1 + 2 + 3 + 4 +|1 + 2 + 3 + 4 +|
G----------------|---------------|---------------|---------------|
D----------------|--------4---5--|---------------|----4---5---4--|
A-----2-------4-7|5--------------|----2-------4-7|5--------------|
E-3-3---3-5-5----|---------------|3-3---3-5-5----|---------------|
 |1 + 2 + 3 + 4 +|1 + 2 + 3 + 4 +|1 + 2 + 3 + 4 +|1 + 2 + 3 + 4 +|
G----------------|---------------|---------------|---------------|
D----------------|--------4---5--|---------------|--------5-4----|
A-----2-------4-7|5--------------|----2-------4-7|5-----------7-5|
E-3-3---3-5-5----|---------------|3-3---3-5-5----|---------------|
 |1 + 2 + 3 + 4 +|1 + 2 + 3 + 4 +|1 + 2 + 3 + 4 +|1 + 2 + 3 + 4 +|
G----------------|---------------|---------------|---------------|
D----------------|--------4---5--|---------------|----4---5---4--|
A-----2-------4-7|5--------------|----2-------4-7|5--------------|
E-3-3---3-5-5----|---------------|3-3---3-5-5----|---------------|...silence

notes: its about 94% right, the end of the chorus i cant figure out, you can 
improvise on the prechorus if you want. The last measure of each verse i didnt get exactly,
but if you play it with the song most of it slides. If somone could correct the tab for
the last line of the verse, it would be greatly appreciated.
Comments