Pillar - Reaching Out Chords & Tabs

 

Reaching Out Chords & Tabs

Pillar Chords & Tabs

Version: 1 Type: Bass Tab 0 ratings
1 star 2 stars 3 stars 4 stars 5 stars
comments

Reaching Out Bass Tab

Artist: Pillar
Song: Reaching Out
Copyright 2000 flickerrecords.com

Have fun...
Verse 1: (listen to the song for correct rhythm)
G ------------------------------------------------------------------|
D ------------8----7--6-6-----------------------8----7--6-6---------|
A --------8-8--8----------6----------------8-8---8----------6-------|
E -7-6-6---------------------4-4-5-7-6-6----------------------4-4-5-|

G ------------------------------------------------------------------|
D ----------------8-10-8--7-6-6------------------------8-----7--7/6-|
A -----------8-8------------------6-----------------8-8---8---------|
E --7--6-6-------------------------4--4-5-7--6-6--------------------|

Chorus: (“reaching out and walking…..”)
G --------------------------4/6-4--2--------------------------------|
D -----4----------4--2-2--------------2----------4--6-7-6-5-4-3-----|
A ---4---4---2----------------------------5---4---------------------|
E -2--------2-------------------------------------------------------|
[ Tab from: http://www.guitartabs.cc/tabs/p/pillar/reaching_out_btab.html ]
G --------------------------4/6-4--2--------------------------------|
D -----4----------4--2-2--------------2----------4------------------|
A ---4---4---2----------------------------5---4---------------------|
E -2--------2-------------------------------------------------------|

Verse 2: (same as verse 1)
Chorus: (has a different connector on the 1st part)
G --------------------------4/6-4--2--------------------6-7-9-7-6h7-|
D -----4----------4--2-2--------------2----------4--6---------------|
A ---4---4---2----------------------------5---4---------------------|
E -2--------2-------------------------------------------------------|

G --------------------------4/6-4--2--------------------------------|
D -----4----------4--2-2--------------2-----------------------------|
A ---4---4---2----------------------------5---4---------------------|
E -2--------2--------------------------------------2----------------|

Bridge (guitar does solo)
G ------------------------------------------------------------------|
D --------4---------------------------------------2-2---------------|
A ----------4----4-4-2-4-----4-4-2-0-----4-4------2-0---------------|
E ---2-2------------------------------------------------------------|

Submitted by Jonathan.
Comments