Pillar - Original Superman Chords & Tabs

 

Original Superman Chords & Tabs

Pillar Chords & Tabs

Version: 1 Type: Tab 0 ratings
1 star 2 stars 3 stars 4 stars 5 stars
comments

Original Superman Tab

Intro/Chorus:
e|-------------------------------------------------------------------------|
B|-------------------------------------------------------------------------|
G|-------------------------------------------------------------------------|
D|-0-0-0h4-5-5-5/7-0-0-0h4-5-5-5/7-0-0-0h4-5-5-5/7-0-0-0h4-5\4\2-----------|
A|-0-0-0h4-5-5-5/7-0-0-0h4-5-5-5/7-0-0-0h4-5-5-5/7-0-0-0h4-5\4\2-----------|
D|-0-0-0h4-5-5-5/7-0-0-0h4-5-5-5/7-0-0-0h4-5-5-5/7-0-0-0h4-5\4\2-----------|

Verse:
e|-5-5-5-5--1-1--3-3--5-5-5-5--1-1--3-3--5-5-5-5--3-3--1-1-----------------|
B|-6-6-6-6--3-3--5-5--6-6-6-6--3-3--5-5--6-6-6-6--4-4--2-2-----------------|
G|-7-7-7-7--3-3--5-5--7-7-7-7--3-3--5-5--7-7-7-7--5-5--3-3-----------------|
D|-------------------------------------------------------------------------|
A|-------------------------------------------------------------------------|
D|-------------------------------------------------------------------------|

Verse 2 Lead (1:36)
e|-------------------------------------------------------------------------|
B|-------------------------------------------------------------------------|
G|-x-x-----7-5--x-x-----7-10~-10-7-----------------------------------------|
D|-x-x-7h9------x-x-7h9----------------------------------------------------|
A|-------------------------------------------------------------------------|
D|-------------------------------------------------------------------------|
[ Tab from: http://www.guitartabs.cc/tabs/p/pillar/original_superman_tab.html ]
  Pre-Chorus
e|-------------------------------------------------------------------------|
B|-------------------------------------------------------------------------|
G|-------------------------------------------------------------------------|
D|-x-x-x--7--5--7--5-5-5-5--5--7/-\----------------------------------------|
A|-x-x-x--7--5--7--5-5-5-5--5--7/-\----------------------------------------|
D|-x-x-x--7--5--7--5-5-5-5--5--7/-\----------------------------------------|

Bridge intro:
e|-------------------------------------------------------------------------|
B|-------------------------------------------------------------------------|
G|---------5-5-------------------------------------------------------------|
D|-0-7-5-7-5-5-0-7---------------------------------------------------------|
A|-0-7-5-7-3-3-0-7-7-5p0-5-0-2-3-------------------------------------------|
D|-0-7-5-7-----0-7-7-5p0-5-0-2-3-------------------------------------------|
			|----P.M.---|
Bridge
e|-------------------------------------------------------------------------|
B|-------------------------------------------------------------------------|
G|---7\555-5\4-444-------7\533-3\4-444-------7\555-5\4-444-----------------|
D|-0-7\555-5\4-444-5-3-0-7\533-3\4-444-5-3-0-7\555-5\4-444-5-3-------------|
A|-0-5\333-3\2-222-5-3-0-5\333-3\2-222-5-3-0-5\333-3\2-222-5-3-------------|
D|-0---------------5-3-0---------------5-3-0---------------5-3-------------|

e|-------------------------------------------------------------------------|
B|-------------------------------------------------------------------------|
G|---7-5-------------------------------------------------------------------|
D|-0-7-5-2-3-0-5-0-2-3-0---------------------------------------------------|
A|-0-5-3-2-3-0-5-0-2-3-0---------------------------------------------------|
D|-0-----2-3-0-5-0-2-3-0---------------------------------------------------|

Outro
e|-------------------------------------------------------------------------|
B|-------------------------------------------------------------------------|
G|--7-7-7-7\5-5-5\4x4\5--7-7-7-7\5-5-5\4---[7]-----[7]---------------------|
D|--x-x-x-x\x-x-x\xxx\x--x-x-x-x\x-x-x\x-[7]-[7]-[7]-[7]-------------------|
A|--5-5-5-5\3-3-3\2x2/3--5-5-5-5\3-3-3\2-----------------------------------|
D|-------------------------------------------------------------------------|
Comments