Pillar - Open Your Eyes Chords & Tabs

 

Open Your Eyes Chords & Tabs

Pillar Chords & Tabs

Version: 1 Type: Tab 0 ratings
1 star 2 stars 3 stars 4 stars 5 stars
comments

Open Your Eyes Tab

   
Artist:pillar
Song:open your eyes
submitted by:jesse dagel
tuning: drop D, D,a,D,g,b,e
                     
verses:                           *=palm mute
                                  `=harmonic (natural)
e-----------------
b-----------------
g-----------------
d--01110110110111-         a bunch of times thru both verses.
a--01110110110111-
d--01110110110111-
     **        **


chorus:
[ Tab from: http://www.guitartabs.cc/tabs/p/pillar/open_your_eyes_tab.html ]
---------------------------------------
---------------------------------------
---------------------------------------
---01110110111333---555555----555557-7-333335--55555-33335-----
---01110110111333---555555----555555-5-333333--33333-33333---------
---01110110111333---555555----555555-5-333333--33333-33333--------
                           open your eyes,
then do the open your eyes part again

end chorus on this:

---------------------------------
---------------------------------------
----------------------------------------          then go back to 
------------7-7-7---------------------------           verse and then 
-------------7-7-7--------------------                  do this:
--0-------------------------------------
soft part:      

------------------
------------------
------------------
--7-7-7-----------
---7-7-7----------
------------------

then:

-------------------------         do this a few times then go back and
-------------------------          do the chorus again and then end 
-------------------------             one the verse riff.
--1010-------------------
--1010-------------------                 enjoy!
 -1010-----(DJ-scratches)
Comments