Pillar - Holding On Chords & Tabs

 

Holding On Chords & Tabs

Pillar Chords & Tabs

Version: 1 Type: Tab 0 ratings
1 star 2 stars 3 stars 4 stars 5 stars
comments

Holding On Tab

   
Tabbed by: miguel
Email:linesix_1@hotmail.com

Tuning:
Gtr.1 Intro
D|-----------------------------------------------|
A|-----------------------------------------------|
F|------------------------------------secomd time|  X2
C|--44-------44--------------------------hold-0--| Times
G|--44--9-7--44--9-7--777-5-5-5555-5h7--------5--|
C|--44--4-4--44--4-4--000-0-0-0000-0h0--------0--|
    xx       xx        x      x x  x                           

Gtr.2
D|-------------------------------------------------------------------------|
A|--------------------------------------------------------------99-9h10----|
F|--11-11-11-11-11-11-11-11-11\-7-7777-7h9/-11-11-11-11-11-11-11-------7---|
C|------------------------------------------------------------------Hold---|
G|-------------------------------------------------------------------------|
C|-------------------------------------------------------------------------|

Verse:
D|----------------------------------------------------|
A|----------------------------------------------------|
F|----------------------------------------------------| X the whole verse
C|--4444-4h7---X4-----0000--0h2---X3------------------|       3 times
G|--4444-4h7--times---0000--0h2--times--7-5-4h5-4-0---|
C|--4444-4h7----------0000--0h2---------0-0-0h--------|

Chorus:
D|-----------------------------------------------|
A|-----------------------------------------------|
F|------------------------------------secomd time|  X2
C|--44-------44--------------------------hold-0--| Times
G|--44--9-7--44--9-7--777-5-5-5555-5h7--------5--|
C|--44--4-4--44--4-4--000-0-0-0000-0h0--------0--|
    xx       xx        x      x x  x               

Verse:
D|----------------------------------------------------|
A|----------------------------------------------------|
F|----------------------------------------------------| X the whole verse
C|--4444-4h7---X4-----0000--0h2---X3------------------|       3 times
G|--4444-4h7--times---0000--0h2--times--7-5-4h5-4-0---|
C|--4444-4h7----------0000--0h2---------0-0-0h--------|
[ Tab from: http://www.guitartabs.cc/tabs/p/pillar/holding_on_tab.html ]
Solo: Gtr.1
D|--------------------|-------------------|---------------------|
A|--------------------|-------------------|--------5-----5------|
F|---------6-----6----|--------7-----7----|-7-7-6-6-7-6-7-7-6-7-|
C|--7-7-6-6-7-6-7-7-6-|-7-7-6-6-7-6-7-7-6-|---------------------|
G|--------------------|-------------------|---------------------|
C|--------------------|-------------------|---------------------|

Gtr.2
D|--------------------------------------------------------------|
A|--------------------------------------------------------------|
F|-Hold--------------Hold----------------Hold-------------------|
C|--4-----------------0-------------------7---------------------|
G|--4-----------------0-------------------7---------------------|
C|--4-----------------0-------------------7---------------------|

D|----------------|---------------------------------------------|
A|----------------|----5-7-9-10-7-------------------------------|
F|--6-7-7-6-7-7-7-|-6-7-----------------------------------------|
C|----------------|---------------------------------------------|
G|----------------|---------------------------------------------|
C|----------------|---------------------------------------------|

Gtr.2
D|-----------------------------------------|
A|-----------------------------------------|
F|-Hold----------Hold----------------------|  X solo 2 times
C|--9-------------12-----------------------|
G|--9-------------12-----------------------|
C|--9-------------12-----------------------|

Chorus:
D|-------------------------------------------------------------------------|
A|-------------------------------------------------------------------------|
F|-------------------------------------------------------------------------|
C|--4-4-4-4-4-4-4-4--0-0-0-0-0-0-0-0--7-7-7-7-7-7-7-7--9-9-9-9--12-12-12-12|
G|--4-4-4-4-4-4-4-4--0-0-0-0-0-0-0-0--7-7-7-7-7-7-7-7--9-9-9-9--12-12-12-12|
C|--4-4-4-4-4-4-4-4--0-0-0-0-0-0-0-0--7-7-7-7-7-7-7-7--9-9-9-9--12-12-12-12|
repeat 2 times

End of song:
D|-------------------------------------------------------|
A|-------------------------------------------------------|
F|--------------------------------------For-The-End-Hold-| X the whole thing
C|--4444-4h7---X4-----0000--0h2---X3------------------4--|       3 times
G|--4444-4h7--times---0000--0h2--times--7-5-4h5-4-0---4--|
C|--4444-4h7----------0000--0h2---------0-0-0h--------4--|

   have fun and if there's something rong please tell me
                        
| /  slide up
| \  slide down
| h  hammer-on
| p  pull-off
| ~  vibrato
| +  harmonic
| x  Mute note
Comments