Pillar - Fireproof Chords & Tabs

 

Fireproof Chords & Tabs

Pillar Chords & Tabs

Version: 4 Type: Tab 0 ratings
1 star 2 stars 3 stars 4 stars 5 stars
comments

Fireproof Tab

   
Artist Name: Pillar 
Tab Name: Fireproof 

Intro
e------------------------
B------------------------
G------------------------
D-0---0---0---|--2---2---2---|--3---3---3---|--5---5---5
A-0---0---0---|--2---2---2---|--3---3---3---|--5---5---5
D-0---0---0---|--2---2---2---|--3---3---3---|--5---5---5

Verses
G-------------------------------------
D-------------------------------------
A--------0--------0--------0--------0----    (2X)
D-0-0-0---02-2-2---23-3-3---35-5-5---5---

G--------------------------------------
D--------0-------0--------0--------0---
A--------------------------------------     (2X)
D-0-0-0---0222---2333---3555---5---
[ Tab from: http://www.guitartabs.cc/tabs/p/pillar/fireproof_tab_ver_4.html ]
Bit before chorus
G--------------------------------
D-0000002222222333333555555555555
A-0000002222222333333555555555555
D-0000002222222333333555555555555

Chorus
G-----------------------------------
D-0--0------------------0--0----------0---8--8--8----7-7-7
A-0--0------------------0--0----------0---10-10-10---5-5-5
D-0--0---0h13p0-0h13p0--0--0--0h13p0--0---10-10-10---5-5-5

Interlude ( i think ? )
G----------------------------------------------------
D-3-5-35-35-35-5-7-57-57-57-1-3-13-13-13-7-9-79-79-79
A-3-5-35-35-35-5-7-57-57-57-1-3-13-13-13-7-9-79-79-79
D-3-5-35-35-35-5-7-57-57-57-1-3-13-13-13-7-9-79-79-79

Ending
G-----------------------------
D-57-57-57-57-xxxxxx-57-------
A-57-57-57-57-xxxxxx-57-------
D-57-57-57-57-xxxxxx-57-------
Comments