Pillar - Fireproof Chords & Tabs

 

Fireproof Chords & Tabs

Pillar Chords & Tabs

Version: 1 Type: Tab 1 rating
1 star 2 stars 3 stars 4 stars 5 stars
comments

Fireproof Tab

   
Fireproof by Pillar
Tune to Drop D (D A D G B E)

Intro
e--------------------------------------------------------------------------------
b--------------------------------------------------------------------------------
g--------------------------------------------------------------------------------
d--------------------------------------------------------------------------------
a--0-----0------0-----5-------------0------0-----0-----5-----8-------------------
d--0-----2------3-----5-------------0------2-----3-----5-----8-------------------


Verse
e-----------------------------------------------------------------------------------
b-----------------------------------------------------------------------------------
g-----------------------------------------------------------------------------------
d-----------------------------------------------------------------------------------
a---------5----------5-----------5----------5---------------------------------------
d-0-0-0------0-2-2-2----2-3-3-3-----3-5-5-5---5-------------------------------------

e-----------------------------------------------------------------------------------
b-----------------------------------------------------------------------------------
g-----------------------------------------------------------------------------------
d-----------------------------------------------------------------------------------
a---------5----------5----------5---------5-------5---------------------------------
d-0-0-0------0-2-2-2---2-3-3-3-----3-5-5-----8-8------------------------------------


Chorus
e-----------------------------------------------------------------------------------
b-----------------------------------------------------------------------------------
g-----------------------------------------------------------------------------------
d----------------------------------------------10-10-10-----5-5-5-------------------
a----------------------------------------------10-10-10-----5-5-5-------------------
d--0--0-13-0-13-0----0-13-0-13-0---------------8---8--8-----5-5-5-------------------

Do the above three times, then do this the fourth time
[ Tab from: http://www.guitartabs.cc/tabs/p/pillar/fireproof_tab.html ]
e-----------------------------------------------------------------------------------
b-----------------------------------------------------------------------------------
g-----------------------------------------------------------------------------------
d-----------------------------------------------------------------------------------
a-----------------------------------------------------------------------------------
d-----8888-8888-----5555-5555-------------------------------------------------------


Bridge

Guitar 1
e-----------------------------------------------------------------------------------
b-----------------------------------------------------------------------------------
g-----------------------------------------------------------------------------------
d---5--7--5--7-----5-7---5-7----------5--7--5--7-----5-7---5-7----------------------
a----------------5-----5---------------------------5-----5--------------------------
d-----------------------------------------------------------------------------------

e-----------------------------------------------------------------------------------
b-----------------------------------------------------------------------------------
g-------------------------------------------5--7--5--7---5-7---5-7------------------
d---3--5--3--5-----3-5---3-5---------------------------5-----5----------------------
a----------------5-----5------------------------------------------------------------
d-----------------------------------------------------------------------------------


Guitar 2
e----------------------------------------------------------------------------------
b----------------------------------------------------------------------------------
g----------------------------------------------------------------------------------
d--0-0----0---0---------------------------------5-5----5----5----------------------
a--0-0----0---0---------------------------------5-5----5----5----------------------
d--0-0----0---0---------------------------------5-5----5----5----------------------

e-----------------------------------------------------------------------------------
b-----------------------------------------------------------------------------------
g-----------------------------------------------------------------------------------
d--3-3------3----3-----------------------------8-8------8---8-----------------------
a--3-3------3----3-----------------------------8-8------8---8-----------------------
d--3-3------3----3-----------------------------8-8------8---8-----------------------



Then do the Chorus riff, and accentuate the barre chords


Check the song for timing

Enjoy
Comments