Pillar - Father Chords & Tabs

 

Father Chords & Tabs

Pillar Chords & Tabs

Version: 1 Type: Tab 0 ratings
1 star 2 stars 3 stars 4 stars 5 stars
comments

Father Tab

   
Intro: (acoustic) C#m A  C#m A  (see tab below)


Verse 1:
(C#m  A) x14
B  A  B  A  E


Chorus:
E  C#m  A  B  E
C#m  A  B  C#m  A  C#m  A

Verse 2

[chorus]

then:
B  A

Guitar Solo (see tab below) - Backing chords:   E, F#, A, A
                                                E, F#, A, A

Chorus 2:
E  F#  A  E  F#  A

[ending = C#m A  C#m A on acoustic]


Intro tab:
e---4-4-4----0-------4-4-4----0------------------|
B---5-5-5----5-------5-5-5----5------------------|
G---6-6-6----6-------6-6-6----6------------------|
D---6-6-6----7-------6-6-6----7------------------|
A---4-4-4----0-------4-4-4----0------------------|
E------------------------------------------------|
    C#m      A       C#m      A


Guitar Solo:
e-------------------------------------------------------------------|
B-------------------------------------------------------------------|
G-------------------------------------------------------------------|
D-----------14----14~~--------------14----16/18-14------------------|
A--14-14h16----16----------14-14h16----16----------14~~-------------|
E-------------------------------------------------------------------|
...(A)            E                       F#
[ Tab from: http://www.guitartabs.cc/tabs/p/pillar/father_tab.html ]
e-------------------------------------------------------------------|
B-------------------------------------------------------------------|
G-----------------------------------------------------16----16--18--|
D-----------14----16/18-14----------------14----16/18----18---------|
A--14-14h16----16----------14~~--14-14h16----16---------------------|
E-------------------------------------------------------------------|
                  A

e-------------------------------------------------------------------|
B----17-16--16h17p16-14-16-16h17------------------------------------|
G-------------------------------------------------------------------|
D-------------------------------------------------------------------|
A-------------------------------------------------------------------|
E-------------------------------------------------------------------|
...(A)

e---16-19--------------16-19----------------------------------------|
B---------17-17~~------------17-17~~--17-16h17p16-14--16-16---------|
G-------------------------------------------------------------------|
D-------------------------------------------------------------------|
A-------------------------------------------------------------------|
E-------------------------------------------------------------------|
    E                  F#

e----------------------------------------------------------------------|
B--17------------------------------------------------------------------|
G-----16-18-18--16----13p11--------------------------------------------|
D----------------------------14p11--14/16--16p14--16/18--18p16--18/21--|
A----------------------------------------------------------------------|
E----------------------------------------------------------------------|
   A

e-----------------------------|
B-----------------------------|
G-----------------------------|
D---16/18---------------------|
A----------19p16---19~~~------|
E-----------------------------|
                   E
Comments