Pillar - Bring Me Down Chords & Tabs

 

Bring Me Down Chords & Tabs

Pillar Chords & Tabs

Version: 1 Type: Tab 0 ratings
1 star 2 stars 3 stars 4 stars 5 stars
comments

Bring Me Down Tab

   
Song: Bring Me Down
Artist: Pillar
Album: Where Do We Go From Here?

Tabbed by: Tiz
Email: Don't Bother


Tuning: Drop Db. Db, Ab, Db, Gb, Bb, eb.


Chorus/ Main Riff:

e|-----------------------------------------------------------------------------|
B|-----------------------------------------------------------------------------|
G|-----------------------------------------------------------------------------|
D|--2--0--2--9--5--7--5--7p5--7p5--7p5-----------------------------------------|
A|--2--0--2--9--5--7--5--7p5--7p5--7p5-----------------------------------------|
E|--2--0--2--9--5--7--5--7p5--7p5--7p5-----------------------------------------|
     x3     x3           x4 x2
[ Tab from: http://www.guitartabs.cc/tabs/p/pillar/bring_me_down_tab.html ]
Verse:
e|-----------------------------------------------------------------------------|
B|-----------------------------------------------------------------------------|
G|-----------------------------------------------------------------------------|
D|-----------4h5-5p4-4h7-xxxx-7-xx-7-7p4h5-------------------------------------|
A|--7777-----------------------------------------------------------------------|
E|-----------------------------------------------------------------------------|

e|-----------------------------------------------------------------------------|
B|-----------------------------------------------------------------------------|
G|-----------------------------------------------------------------------------|
D|----------4h5-5p4-4h7-xxxx-7-xx-7-7-11p9-11p9--------------------------------|
A|-7777------------------------------------------------------------------------|
E|-----------------------------------------------------------------------------|

Bridge

e|-----------------------------------------------------------------------------|
B|-----------------------------------------------------------------------------|
G|-----------------------------------------------------------------------------|
D|---2-0-2--0-2-2p0------------------------------------------------------------|
A|---2-0-2--0-2-2p0------------------------------------------------------------|
E|---2-0-2--0-2-2p0------------------------------------------------------------|
      x3

And thats the song folks

| /  slide up
| \  slide down
| h  hammer-on
| p  pull-off
| ~  vibrato
| +  harmonic
| x  Mute note
===============================================================================
Comments