Pilate - Perfect Thrill Chords & Tabs

 

Perfect Thrill Chords & Tabs

Pilate Chords & Tabs

Version: 2 Type: Tab 0 ratings
1 star 2 stars 3 stars 4 stars 5 stars
comments

Perfect Thrill Tab

   
Tabbed by: Kai
Artist: Pilate
Song Title: Perfect Thrill

Tuning: Standard [E A D G B E]

Corrections/comments are welcome at khuang51804@yahoo.ca, listen to recording for strum patterns.



-----Intro-----

e|---0--------0--------0----0-----(3)-----2---------------------------------|
B|---3--------2--------0----0-----(3)-----3---------------------------------|
G|---0--------0--------0 or-9------0------2---------------------------------|
D|---2--------2--------2---10------0------0---------------------------------|
A|---3--------0--------3---10------2------0---------------------------------|
E|---0--------0--------0----8------3------x---------------------------------|


-----Verse-----

e|--0--------------------------0--------------------------0-----------------|
B|--0--------------------------2--------------------------1-----------------|
G|--0--------------------------2--------------------------0-----------------|
D|--2--------------------------2--------------------------2-----------------|
A|--2--------------------------0--------------------------3-----------------|
E|--0--------------------------0--------------------------x-----------------|
      This morning is a thrill...For you just made your kill...

e|-(3)------------------------2---------------------------------------------|
B|-(3)------------------------3---------------------------------------------|
G|--0-------------------------2--------------------0------------------------|
D|--0-------------------------0--------------------2------------------------|
A|--2-------------------------0--------------------2------------------------|
E|--3-------------------------x--------------------0------------------------|
    You took that dream and slowly slit its throat... (repeat until chorus)


-----Chorus-----

e|--0----------------------------2------------------------------------2-----|
B|--1----------------------------3------------------------------------3-----|
G|--2----------------------------2------------------------------------4-----|
D|--2----------------------------0------------------------------------4-----|
A|--0----------------------------0------------------------------------2-----|
E|--0----------------------------x------------------------------------2-----|
   Do you know what I've been feeling?   Did you know my mind was reeling?

e|------------------------0------------------------------0------------------|
B|------------------------0------------------------------1------------------|
G|------------------------0------------------------------2------------------|
D|------------------------2------------------------------2------------------|
A|------------------------2------------------------------0------------------|
E|------------------------0------------------------------0------------------|
   Have you ever seen the sun go down on such a perfect thrill?

e|------------------2-------------------------------3------------------2----|
B|------------------3-------------------------------3------------------4----|
G|------------------2-------------------------------0---------ends w/--4----|
D|------------------0-------------------------------0------------------4----| 
A|------------------0-------------------------------2------------------0----|
E|------------------x-------------------------------3------------------x----|
  Such a perfect thrill...yeah you just made your kill. (back to verse after 'ends w/')


-----Bridge-----
[ Tab from: http://www.guitartabs.cc/tabs/p/pilate/perfect_thrill_tab_ver_2.html ]
e|--3----------------------------------------------------------2------------|
B|--3----------------------------------------------------------3------------|
G|--0----------------------------------------------------------2------------| x2
D|--0----------------------------------------------------------0------------|
A|--2----------------------------------------------------------0------------|
E|--3----------------------------------------------------------x------------|
    You turned your back, broke from this track...For empty halls where your fear calls


                                                 --------------0------------|
                                                 --------------1------------|
                                       ends w/   --------------2------------| 
                                                 --------------2------------|
                                                 --------------0------------|
                                                 --------------0------------|

-----Ending-----

e|----------------------------------------------0---------------------------|
B|----------------------------------------------0---------------------------|
G|---------------2-----------4-----4------------0---------------------------| 
D|---------------4-----------4-----1------------2---------------------------|
A|----------------------------------------------2---------------------------|
E|----------------------------------------------0---------------------------|
      I've been blind lately, despite these climes I’m wading in...

e|--0--------------2--------2----------0-------------------0----------------|
B|--1--------------3--------3----------0-------------------1----------------|
G|--2--------------2--------4----------0-------------------2----------------| 
D|--2--------------0--------4----------2-------------------2----------------|
A|--0--------------0--------2----------2-------------------0----------------|
E|--0--------------x--------2----------0-------------------0----------------|
       You’ve got lies lady, but over time I’ll share your sin...

e|----2---------3--------|
B|----3---------3--------|
G|----2---------0--------|
D|----0---------0--------|
A|----0---------2--------|
E|----x---------3--------|

-----Verse-----
This morning ends the thrill, for you just made your kill,
You took that dream and slowly slit its throat

The silence burns my ears, my senses are aware,
The morning sun tears through last night’s snow

-----Chorus-----
Do you know what I’ve been feeling,
Did you know my mind was reeling,
Have you ever seen the sun go down on such a perfect thrill,
Such a perfect thrill, for you just made your kill

-----Verse-----
There’s blood upon this ground, there’s silence through the town,
Your crime has not yet frozen morning smiles

You know they’ll track your feet, you know you’ve cut them deep,
You’ll leave us now and walk those lonely miles

-----Chorus-----
Do you know what I’ve been feeling,
Did you know my mind was reeling,
Have you ever seen the sun go down on such a perfect thrill,
Such a perfect thrill, for you just made your kill

-----Bridge-----
You turned your back,
Broke from this track,
For empty halls where your fear calls,
Slip through the door,
Out into night,
You steal through town under moonlight...

-----Ending-----
I’ve been blind lately, despite these climes I’m wading in,
You’ve got lies lady, but over time I’ll share your sin...
Comments