Pilate - Into Your Hideout Chords & Tabs

 

Into Your Hideout Chords & Tabs

Pilate Chords & Tabs

Version: 3 Type: Tab 0 ratings
1 star 2 stars 3 stars 4 stars 5 stars
comments

Into Your Hideout Tab

   
Into your hideout
Pilate
Tabbed by Najib Kaake
------------------
I couldn't find the tab on-line so I decided to try to tab it myself.  I've only played 
on my acoustic though, so I'm not too sure about how it sounds on an electric guitar.  
here it is, my first tab ...
[ Tab from: http://www.guitartabs.cc/tabs/p/pilate/into_your_hideout_tab_ver_3.html ]
Intro + Verses?
     G                    D         A
e|---0---00000--0---0000--2---2222--0---0000----|
B|---3---33333--3---3333--3---3333--2---2222----|
G|---0---00000--0---0000--2---2222--2---2222----|
D|---0---00000--0---0000--0---0000--2---2222----|
A|---2---22222--2---2222--x---xxxx--0---0000----|
E|---3---33333--3---3333--x---xxxx--x---xxxx----|
It sounds like he plucks one different string before he switches to the next pattern of chords

I think the verses are the same as the intro...


The solo sounds like it goes like this:
e|--------------------------|----------------------------------|
B|-7~-5~-7~-5~-7~-5~--------|-7~---5~---7~---5~-----8~-7~-5----|
G|---7--7--7--7--7-6(b)-6(b)|-----7----7----7----7-----------6~|
D|--------------------------|----------------------------------|
A|--------------------------|----------------------------------|
E|--------------------------|----------------------------------|


Sorry for not being completely sure but at least you'll have an idea of how it goes.
Have fun.
Comments