Pilate - Into Your Hideout Chords & Tabs

 

Into Your Hideout Chords & Tabs

Pilate Chords & Tabs

Version: 1 Type: Tab 0 ratings
1 star 2 stars 3 stars 4 stars 5 stars
comments

Into Your Hideout Tab

   
Into your hideout - Pilate

Tabbed by Auryn Soares 

University of Guelph [ERTW]
---------------------------

INTRO 

  G                 D        A       x3
E|0---000020---000022---222200-000000|
B|0---000000---000003---333302x222220|
G|3.--333333.--333332.--2222-2x22222-|
D|5.--555555.--555550.--0000-2x22222-|
A|5---555555---55555---------0-00000-|
E|3---333333---33333-----------------|
  
Hint: Use your thumb to fret the bass note on E(6th string).



VERSE 1
  		   
  G(2nd position)                         D               A          
E|0---------------------------------------2---------------0-----------------|
B|0---------------------------------------3---------------2-----------------|
G|3----/----------/-----------/-----------2-------/-------2--------/--------|
D|5----/----------/-----------/-----------0-------/-------2--------/--------|
A|5-------------------------------------------------------0-----------------|
E|3-------------------------------------------------------------------------|

  I've made it my      dear face it, I    still kiss the  darkness
  What I've wasted, I still taste it, I'm sickened  and   hardened  I'm gonna 
  Tee  ee ee  eeeeee            I'm gonna tear your walls down      I'm gonna
  Tee  ee ee  eeeeee            I'm gonna tear your walls down

I stole                 into your         hide            out


INTRO 

  G                 D        A       x3
E|0---000020---000022---222200---0-0-|
B|0---000000---000003---333302xx-2-2-|
G|3.--333333.--333332.--2222-2xx-2-2-|
D|5.--555555.--555550.--0000-2xx-2-2-|
A|5---555555---55555---------0---0-0-|
E|3---333333---33333-----------------|



VERSE 2
  		   
  G(2nd position)                         D               A          
E|0---------------------------------------2---------------0-----------------|
B|0---------------------------------------3---------------2-----------------|
G|3----/----------/-----------/-----------2-------/-------2--------/--------|
D|5----/----------/-----------/-----------0-------/-------2--------/--------|
A|5-------------------------------------------------------0-----------------|
E|3-------------------------------------------------------------------------|
[ Tab from: http://www.guitartabs.cc/tabs/p/pilate/into_your_hideout_tab.html ]
I walked with you I talked with you, I    still can help  thinking     Your
  drugs bleeding so sweet yet fleeting my memories   are  sinking.  I'm gonna
  Tee  ee ee  eeeeee            I'm gonna tear your walls down      I'm gonna
  Tee  ee ee  eeeeee            I'm gonna tear your walls down      And

I stole                 into your         hide            out       And it's cold there    
  now..


SOLO

  G                            D    A     G                        D     A          
E|--------------------------------------|-----------------------------------|
B|-7~---5~---7~---5~---7~---5~----------|-7~---5~---7~---5~-----8~-7~-5-----|
G|-----7----7----7----7----7---6(b)-6(b)|-----7----7----7----7-----------6~-|
D|--------------------------------------|-----------------------------------|
A|--------------------------------------|-----------------------------------|
E|--------------------------------------|-----------------------------------|

Note: Bend the two notes above a "full" step and "guide" them back at the same speed.

BRIDGE

  Bm                                      D               Em
E|2---------------------------------------2---------------0-----------------|
B|3---------------------------------------3---------------0-----------------|
G|4----/----------/-----------/-----------2-------/-------0--------/--------|
D|4----/----------/-----------/-----------0-------/-------2--------/--------|
A|2-------------------------------------------------------2-----------------|
E|2-------------------------------------------------------0-----------------|

  Bm
   Everything outside the truth, 
  
  Bm 
   Does nothing more to cut it loose I've 

  D
  left    the     path,    the

  Em            Intro  
  road just disappeared.


VERSE 3 
  		   
  G(2nd position)                         D                 A          
E|0---------------------------------------2-----------------0---------------|
B|0---------------------------------------3-----------------2---------------|
G|3----/----------/-----------/-----------2-------/---------2------/--------|
D|5----/----------/-----------/-----------0-------/---------2------/--------|
A|5---------------------------------------------------------0---------------|
E|3-------------------------------------------------------------------------|

  Gray shadows and white meadows, a       bitter snow   is   falling      My
  legs fail me, the ground hails me,     distant lights are calling


  Into your hideout, tearing my heart out now...                         And

  
I stole                 into your         hide               out.



































Comments