Pilarczyk - Leann Chords & Tabs

 

Leann Chords & Tabs

Pilarczyk Chords & Tabs

Version: 1 Type: Tab 0 ratings
1 star 2 stars 3 stars 4 stars 5 stars
comments

Leann Tab

   
   G var	     C9 var
e:----------|--------|--------|-------- Bass line
B:--3--3--3-|0--0--0-|3--3--3-|0--0--0- hold each 4 beats
G:---0--0--0|-0--0--0|-0--0--0|-0--0--0|GD|CB----
D:----0--0--|--0--0--|--2--2--|--2--2--|-0|------
A:----------|--------|3--3--3-|3--3--3-|--|32----
E:--3--3--3-|3--3--3-|--------|--------|3-|------
[ Tab from: http://www.guitartabs.cc/tabs/p/pilarczyk/leann_tab.html ]
    D var
e:--2--3P2--|0--2--3-
B:---3----3-|-3--3--3
G:----2----2|--2--2--|DD
D:--0--0----|0--0--0-|00
A:----------|--------|--
E:----------|--------|--
GC
She wakes up at morning's light
gatta run out for the train
get's to work about a quarter to nine
place drives her insane

(chorus)DC
She was lonely
she was all alone
now she's gone 
gone away from here
She's gone away from here (start strumming)

She gets off about half past four
she's gatta take the train back home
and now she can't wait just to get
an old friend on the phone

(chorus)

And when she gets home there he is
he treats her like shit
And she just can't take anymore
of his mindless stupid fits

(chorus)
(pick for last verse)
Now she's packed her bags and things
she's going on back home
ganna get away from him
so she won't be alone

(Chorus)
Comments