Pigface - Think Chords & Tabs

 

Think Chords & Tabs

Pigface Chords & Tabs

Version: 1 Type: Tab 0 ratings
1 star 2 stars 3 stars 4 stars 5 stars
comments

Think Tab

   
#----------------------------------PLEASE NOTE--------------------------------#
#This file is the author's own work and represents their interpretation of the#
#song. You may only use this file for private study, scholarship, or research.#
#-----------------------------------------------------------------------------#

Date: Tue, 7 Apr 1998 00:37:04 -0400
From: renihan 
Subject: p/pigface/think.tab

THINK- by PIGFACE!!!!
-------------------------
from Notes From The Underground/Feels Like Heaven...

this is a cool song.. but in my opinion the original
(on Notes From The Underground) is NOT very good...
the remix on Feels Like Heaven is very good though..
and all live versions I've heard are good too..
anyway. here it is....

It is in Dropped-D (DADGBE)

MAIN RIFF:

e---------------------|-------------------|
B---------------------|-------------------|
G---------------5-7---|-------------------|
D-0-0-3-0-0-0-0-5-7---|-0-0-5h6p5-3h5-5-3-|
A-0-0-3-0-0-0-0-3-5---|-0-0-5h6p5-3h5-5-3-|
D-0-0-3-0-0-0-0-------|-0-0-5h6p5-3h5-5-3-|

 ^This part 3 times     ^Then this once
[ Tab from: http://www.guitartabs.cc/tabs/p/pigface/think_tab.html ]
CHOURS:
e-------------------------------------------------|
B-------------------------------------------------|
G-2-x-x-2-2-2/4-x-x-4-4-4/5-x-x-5-5-5/7-x-x-7-7-7-|
D-2-x-x-2-2-2/4-x-x-4-4-4/5-x-x-5-5-5/7-x-x-7-7-7-|:
A-0-x-x-0-0-0/2-x-x-2-2-2/3-x-x-3-3-3/5-x-x-5-5-5-|
D-------------------------------------------------|


the lone bassline with Martin's speech in the 
Addiction/Salvation remix is like this:

e---------------------------------------|
B---------------------------------------|
G---------------------------------------|
D---------------------------------------|
A---------------3-5---------------------|
D-0-0-3-0-0-0-0-------0-0-5h6p5-3-3-5-3-|

yeah.. the lyrics, as best I can figure, are:

THINK (Addiction/Salvation Mix)
--------
Verse:
I knew I'd be alone when I caught you
Creeping through my mind
Alone with all my fear
The pressure building in my head
I saw you lying there
Oh, I made a mess of mine
And all those around
Think you're so damn cool
You're so damn cool.

Chorus:
Don't think about it
Addiction
User or Loser
Don't think about it
Salvation
User or Loser
Mind Abuser

Interlude:
I'm thinking clearly...
I'm thinking clearly...
I'm thinking clearly...
I'm thinking clearly...
And now I don't know

Martin's Speech:
Think- Don't be fooled
Be Humble
Be Religious
Salvation!
Think very hard about your future-
And your Life
Carefully write it down on a large Piece of Paper
And Flush it down the toilet.



that's all there is. Tommorrow I go to the Pigface 
concert! yay!
James_Renihan@eyenet.eybe.edu.on.ca
is the addy I go by.. give me a holler.
ren
Comments