Pietasters - Pleasure Bribe Chords & Tabs

 

Pleasure Bribe Chords & Tabs

Pietasters Chords & Tabs

Version: 1 Type: Bass Tab 0 ratings
1 star 2 stars 3 stars 4 stars 5 stars
comments

Pleasure Bribe Bass Tab

Song:  Pleasure Bribe
Band:  Pietaster
Album:  Strapped Live
tabbed by: andy pie_tasters@hotmail.com

------------
----*-------    Mean to rest
----*-------
------------


Intro (hold the note where it is needed)
G:------------------|-------------------|
D:------------------|-------------------|
A:------2-2-3-3-2---|-------------------|
E:-0--0-------------|--7-7-5-5-3-3-2-2--|

Main Part
G:------------------------------------------------|
D:------------------------------------------------|
A:--------------2-2-2-2-2---3-3-3-3-3---2-2-2-2-2-|
E:-0-0--0-0-0-------------------------------------|
[ Tab from: http://www.guitartabs.cc/tabs/p/pietasters/pleasure_bribe_btab.html ]
(not sure if this is correct)
G:--------------------------------------------------------------------------------|
D:--------------------------------------------------------------------------------|
A:----------2----------2-3-------3-2---------2-------2-2-------2-3-2--------------|
E:-0--3--5-----5--3--5------0-3-------5-3-1-----0-3-------3-5--------5-3-1-3-1-0--|
When lyric come back in
G:-------------------------------------------------------------------------------|
D:-------------------------------------------------------------------------------|
A:------------------------------------------------------------------2--2--2--2---|
E:--3-3-3-3-3--5-5-5-5-5--2-2-2-2-2-3-3-3-3-3---3-3-3-3-3-5-5-5-5-5--------------|



ending
G:-----------------------------------------------------|
D:---0-2-0---*-----------*---0-2-0---*-----------------|
A:-2-------2-*-----2-----*-2-------2-*--2-3-2-0--------|
E:-------------3-5---5-3------------------------3-2-0--|


These are the riff in the song.  Was extremly hard to hear because it was off a live album
so they may be a bit off.



Comments