Piebald - The Stalker Chords & Tabs

 

The Stalker Chords & Tabs

Piebald Chords & Tabs

Version: 1 Type: Tab 0 ratings
1 star 2 stars 3 stars 4 stars 5 stars
comments

The Stalker Tab

   
-------------------------------------------------------------------------------
			     The Stalker - Piebald
-------------------------------------------------------------------------------
Tabbed by: cam
Email: ebskater@gmail.com

Tuning: standard

intro/verse   in verse, play ( every other time.
      dud ud udud ud udud ud udud ud u
e|--------------------------------------------------------------------|
B|--------------------------------------------------------------------|
G|----777----7777----4444----4444-------------------------------------|
D|----777-77-7777-77-4444-44-4444-44(5--------------------------------|
A|----555-77-5555-77-2222-44-2222-44(5--------------------------------|
E|--------55------55------22------22(3--------------------------------|
[ Tab from: http://www.guitartabs.cc/tabs/p/piebald/the_stalker_tab.html ]
chorus- play after verse twice
     u     d  d d d d d d  ddd
e|---------------------------------------------------------------------|
B|---------------------------------------------------------------------|
G|--------------4---4---4--7-------------------------------------------|
D|---5--------2-4-2-4-2-4--745-----------------------------------------|
A|---5-----2--0-2-0-2-0-2--545-----------------------------------------|
E|---3-----0----------------23-----------------------------------------|

intro x2
verse x3
chorus x2
he plays the verse and chorus under solo
pretty easy to figure out timing and strumming, the chords make up the whole song after the solo too

===============================================================================
Comments