Piebald - Rich People Can Breed Chords & Tabs

 

Rich People Can Breed Chords & Tabs

Piebald Chords & Tabs

Version: 1 Type: Bass Tab 0 ratings
1 star 2 stars 3 stars 4 stars 5 stars
comments

Rich People Can Breed Bass Tab

#----------------------------------PLEASE NOTE--------------------------------#
#This file is the author's own work and represents their interpretation of the#
#song. You may only use this file for private study, scholarship, or research.#
#-----------------------------------------------------------------------------#
#-- File created with Instab - http://www.pconline.com/~smcarey/instab.html --#
#-----------------------------------------------------------------------------#

Author/Artist: Piebald
Title: Rich People Can Breed
Album: We The Only Friends We Have
Transcribed by: Eric Blitz
Email: skankinnj@comcast.net
[ Tab from: http://www.guitartabs.cc/tabs/p/piebald/rich_people_can_breed_btab.html ]
---------------------------------|--------------------------------------------
---------------------------------|--------------------------------------------
---------------------------------|--------------------------------------------
---------------------1-2-3-3-1-3-|----------------------1-2-3---3--1-2-3---3--
-------0-1-1-0-1-3-3-------------|--------0-1-1-0-1-3-3-----------------------
-1-1-4---------------------------|--1-1-4-------------------------------------
   repeat this verses             use this for the final lines of the verse   

-------------------|----------------------------------------------------------
-------------------|----------------------------------------------------------
-------------------|----------------------------------------------------------
-1-2-3---3--1-2-3--|----------------------------------------------------------
-------------------|----8-8---8--8p7-7-7---7-7p6-6-6--6-----------------------
-------------------|-------------------------------------8---7----8-7--1------
                        this is the slow part                                 

Comments