Piebald - King Of The Road Chords & Tabs

 

King Of The Road Chords & Tabs

Piebald Chords & Tabs

Version: 1 Type: Tab 0 ratings
1 star 2 stars 3 stars 4 stars 5 stars
comments

King Of The Road Tab

   
King of the Road
Piebald

Tabbed By:Aaron (aarontxwl@hotmail.com)

Intro (Guitar 1)
Guitar 2 Plays A5, B5, C#5, D5
e|---------------------------------------------------------------------------|
B|---------------------------------------------------------------------------|
G|---------------------------------------------------------------------------|
D|-------2---2-4-------------------------------------------------------------|
A|-0-2-4---4-----------------------------------------------------------------|
E|---------------------------------------------------------------------------|


Verse Chords (Andy went back to school...). Same thing when drums come in except different rhythm
e|----------------------------------------------------------------------------|
B|-2--------3-----------------------------------------------------------------|
G|-2--2-----2-----------------------------------------------------------------|
D|-2--2--4--0-----------------------------------------------------------------|
A|-0--x--4--------------------------------------------------------------------|
E|----4--2--------------------------------------------------------------------|

Chorus (But wait after all..)
e|---------------------------------------------------------------------------|
B|-3--------------------------------------------------------------------------|
G|-2---1-----------------------------------------------------------------------|
D|-0---2-----------------------------------------------------------------------|
A|-----2----------------------------------------------------------------------|
E|-----0----------------------------------------------------------------------|
[ Tab from: http://www.guitartabs.cc/tabs/p/piebald/king_of_the_road_tab.html ]
Another Chorus thing (But weren't you parked at the station...)
e|---------------------------------------------------------------------------|
B|---------------------------------------------------------------------------|
G|-2----7--7-----------------------------------------------------------------|
D|-2----7--7-----------------------------------------------------------------|
A|-0----5--5-----------------------------------------------------------------|
E|---------------------------------------------------------------------------|

Verse 2 Guitar 1 Plays Palm muted Verse 1
Guitar 2 Plays:
e|-----------------------------------------------12-12-12--------------------|
B|-12--10---------12--10---------12--10--------------------------------------|
G|---------11--9----------11--9----------11--9-------------------------------|
D|---------------------------------------------------------------------------|
A|---------------------------------------------------------------------------|
E|---------------------------------------------------------------------------|

Bridge Guitar 1:
e|---------------------------------------------------------------------------|
B|---------------------------------------------------------------------------|
G|-6-6-7--6-6-7--6-6-7--6-6-4------------------------------------------------|
D|---------------------------------------------------------------------------|
A|---------------------------------------------------------------------------|
E|---------------------------------------------------------------------------|

Bridge Guitar 2:
e|---------------------------------------------------------------------------|
B|-10---10-9-7-5-------------------------------------------------------------|
G|---------------6~----------------------------------------------------------|
D|---------------------------------------------------------------------------|
A|---------------------------------------------------------------------------|
E|---------------------------------------------------------------------------|

Bridge Guitar 3:
e|-9--9-10--9-9-10--9--9-10--9--9-7------------------------------------------|
B|---------------------------------------------------------------------------|
G|---------------------------------------------------------------------------|
D|---------------------------------------------------------------------------|
A|---------------------------------------------------------------------------|
E|---------------------------------------------------------------------------|

Outro (Now it's all the same...)
Same as Intro

End on A Maj
Comments