Phools - Open Doors Chords & Tabs

 

Open Doors Chords & Tabs

Phools Chords & Tabs

Version: 1 Type: Bass Tab 0 ratings
1 star 2 stars 3 stars 4 stars 5 stars
comments

Open Doors Bass Tab

   
----------------------------------------
	Open Doors - the ph00lz
----------------------------------------

By:Jak ph00lz bassist

G|----------------------3h3-2-1--------------------|
D|-------5h5-3-2---1-2-3-------2--------2h3p2------|
A|--2-3-5-------3-2--------------4-5-7-3--------3--|
E|-3----------------------------5------------3-3-3>|
intro play slowish 1st time then on second time get faster
[ Tab from: http://www.guitartabs.cc/tabs/p/phools/open_doors_btab.html ]
G|----------------------------------------------------|
D|----------------------------------------------------|
A|----------2-2-2-2-2-----------3-3-3-3-3-3-----------|
E|-3-3-3-3-3---------5-5-5-5-5-5-----------3-3-3-3-3-3|

verse
G|------------------7----------|------------------7----------------------------|
D|----4h5----------------------|----4h5----------------------------------------|
A|-3-3---5-5-5-5-5-5-----------|-3-3---5-5-5-5-5-5----7h7-2-2-2-2-3-3-3-5-5-5-5|
E|-------------------3-3-3-3-3-|-------------------5-5-------------------------|

chorus  play 2 times                then play this once
G|--------------------------|
D|--------------------------|
A|--------------------------|
E|-3-3-3-0-0-0-3-3-3-3-0-0-0|

main intrumental part
G|-------------|
D|-------2h2h3-|
A|--2-3-5------|
E|-3----------3|

outro
Comments