Phish - Waste Chords & Tabs

 

Waste Chords & Tabs

Phish Chords & Tabs

Version: 5 Type: Tab 0 ratings
1 star 2 stars 3 stars 4 stars 5 stars
comments

Waste Tab

Waste-Billy Breathes-Phish

Verse "Don't wanna be..."
e-5----5---5---3-2-0-------------------
b-3----2---1---------3---3---3---------
g-2----2---2---------4---3---2---------
d--------------------5---5---4---------
a--------------------------------------
E--------------------------------------
[ Tab from: http://www.guitartabs.cc/tabs/p/phish/waste_tab_ver_5.html ]
Pre-chorus "I dream, its true"
e-------------------------------------
b--3---3---3-------3---3---3----------
g--4---3---2-------4---3---2----------
d--5---5---4-------5---5---4----------
a-------------------------------------
E-------------------------------------

Chorus "So if I'm inside..."
e--------------2-----------------------
b--1---1-------3-----------------------
g--2---0---0---2-----------------------
d--3---2---0---------------------------
a------3---2---------------------------
E----------3---------------------------

Bridge "Come waste...your time"
e--3---------------------------------
b--3-------1------1-----3------------
g--0-------2------0-----0------------
d--0-------2------2-----2------------
a--2-------0------3-----3------------
E--3---------------------------------
Comments