Phish - Waste Chords & Tabs

 

Waste Chords & Tabs

Phish Chords & Tabs

Version: 1 Type: Tab 0 ratings
1 star 2 stars 3 stars 4 stars 5 stars
comments

Waste Tab

#----------------------------------PLEASE NOTE--------------------------------#
#This file is the author's own work and represents their interpretation of the#
#song. You may only use this file for private study, scholarship, or research.#
#-----------------------------------------------------------------------------#
#-- File created with Instab - http://www.pconline.com/~smcarey/instab.html --#
#-----------------------------------------------------------------------------#

Author/Artist: Phish
Title: Waste
Album: Billy Breathes
Transcribed by: Kyle McKay
Email: guitarbum09@aol.com

This is a nasty song and def. learn this version cuz all the other ones suck,
this is the live version at hard rock cafe
This is my first tab so email me if u have any questoins

------------------------------------------------------------------------------
------------------------------------------------------------------------------
------------------------------------------------------------------------------
------------------------------------------------------------------------------
------------------------------------------------------------------------------
------------------------------------------------------------------------------
  Intro, Verse and Chorus:                                                    

-|-5-----5-----5-----5-----5-----5------3-----2----0--------------------------
-|-3-----3-----2-----2-----1-----1------1-------------------3-----3-----3-----
-|-2-----2-----2-----2-----2-----2------2---2---0--------4--4-----3-----3-----
-|-0--0--0--0--0--0--0--0--0--0--0--0-----------------4h5---5--5--5--5--5-----
-|----------------------------------------------------------------------------
-|----------------------------------------------------------------------------
                                        A dream..its true                     
[ Tab from: http://www.guitartabs.cc/tabs/p/phish/waste_tab.html ]
-------------------------------|-|--------------------------------------------
------3-----3-----3-----3------|-|--3-----3-----3-----3-------3-----3-----3---
------2-----2-----2-----2------|-|--4-----4-----3-----3-------2-----2-----2---
-5/4--4--4--4--4--4--4--4--0---|-|--5--5--5--5--5--5--5--5/4--4--4--4--4--4---
-------------------------------|-|--------------------------------------------
-------------------------------|-|--------------------------------------------
                And i'd see...it through                                      

---------------------------------------------------------------|--------------
----3----------3-----3-----3-----3-------3-----3-----3-----3---|--------------
----2----------4-----4-----3-----3-------2-----2-----2-----2---|--------------
-4--4--4--4/5--5--5--5--5--5--5--5--5/4--4--4--4--4--4--4--4--0|--------------
---------------------------------------------------------------|--------------
---------------------------------------------------------------|--------------
   So if  I'm   inside    your  head                                          

-|-------------------------------------------|--------------------------------
-|-1--1----1--1--1----3--3--3--3----3--3--3--|--------------------------------
-|-2--2----0--0--0----4--4--4--4----2--2--2--|--------------------------------
-|-3--3----2--2--2----5--5--5--5----4--4--4--|--------------------------------
-|-------------------------------------------|--------------------------------
-|-------------------------------------------|--------------------------------
   Come waste,your time  whith me                                             

-|--3--3--0--0--0--0--0---0--0-0-0-|------------------------------------------
-|--3--3--1--1--1--1--1---1--3-3-3-|------------------------------------------
-|--0--0--2--2--2--0--0---0--0-0-0-|------------------------------------------
-|--0--0--2--2--2--2--2---2--2-2-2-|------------------------------------------
-|--x--x-----------3--3---3--3-3-3-|------------------------------------------
-|--3--3---------------------------|------------------------------------------
                                                                              

Comments