Phish - The Connection Chords & Tabs

 

The Connection Chords & Tabs

Phish Chords & Tabs

Version: 1 Type: Tab 0 ratings
1 star 2 stars 3 stars 4 stars 5 stars
comments

The Connection Tab

   
##################################################################################
# This file is the author's own work and represents their interpretation of the  #
# song. You may only use this file for private study, scholarship, or research.  #
##################################################################################

Phish - The Connection


Verse: G Am7 C 
Chorus: D G Am7 C

Solo (Chorus)
 D                                 G
|----------------|----------------|----------------|-----------------|
|--------3-3--/7-|--5-----5-----5-|----------------|-----------------|
|----------------|------------7---|--2/4-----------|--2/4-2----------|
|----------------|----------------|----------------|--------5--------|
|----------------|----------------|----------------|-----------------|
|----------------|----------------|----------------|-----------------|
[ Tab from: http://www.guitartabs.cc/tabs/p/phish/the_connection_tab.html ]
 Am7               C                Am7               C
|-----------------|----------------|-----------------|-----------------|
|-----------------|----------------|-----------------|-----------------|
|-2-4-2-----------|----------------|-2-4-2-----------|-----------------|
|-------5-2-------|----------------|-------5---2-----|-----------------|
|-----------------|----------------|-----------------|-----------------|
|-----------------|----------------|-----------------|-----------------|

 D                                 G
|----------------|----------------|--7-------------|-----------------|
|--------3-3--/7-|--5-----5-------|----------------|-----------------|
|----------------|------------7---|7---------------|---/4---2--------|
|----------------|----------------|----------------|-----------5-----|
|----------------|----------------|----------------|-----------------|
|----------------|----------------|----------------|-----------------|

 Am7               C                Am7              C
|-----------------|----------------|----------------|-----------------|
|-----------------|----------------|----------------|-----------------|
|-2-4-2-----------|-----------2----|----------------|-------0---------|
|-------5-2-------|----------------|--------------2-|-----------------|
|-----------------|----------------|----------------|-----------------|
|-----------------|----------------|----------------|-----------------|

Verse
Chorus



Yost with the Most


Comments