Phish - Stash Chords & Tabs

 

Stash Chords & Tabs

Phish Chords & Tabs

Version: 3 Type: Tab 0 ratings
1 star 2 stars 3 stars 4 stars 5 stars
comments

Stash Tab

"Stash"
-------
 Phish

I tabbed this from "A Live One" so if you have that version, good for you, but if you
don't, then I don't know how close the original is to this one. But this is pretty
accurate I think.

  ,  ,  ,  ,  ,
e----------------------------------------------------------|
B---------------------------------------------------15~~~--|
G-------------12-13--12---------------12-15---13-14--------|
D-11/12-14-15-----------15--12/11--14----------------------|
A----------------------------------------------------------|
E----------------------------------------------------------|


e--------------------------------------10------------------|
B--------------------------8---9---/10-----/10--6--/8~~~---|
G-7-------7---9---10---------------------------------------|
D---7p6h7---x---x----7/6/7---x-----------------------------|
A----------------------------------------------------------|
E----------------------------------------------------------|

e--------------------------------------10------------------|
B--------------------------8---9---/10-----/10-6----8--6---|
G-7-------7---9---10------------------------------7------7-|
D---7p6h7---x---x----7/6/7---x-----------------------------|
A----------------------------------------------------------|
E----------------------------------------------------------|

e--------------------------------------10------------------|
B--------------------------8---9---/10-----/10--6--/8~~~-x6|
G-7-------7---9---10---------------------------------------|
D---7p6h7---x---x----7/6/7---x-----------------------------|
A----------------------------------------------------------|
E----------------------------------------------------------|

e--------------------------------------10------------------|
B--------------------------8---9---/10-----/10-6----8--6---|
G-7-------7---9---10------------------------------7------7-|
D---7p6h7---x---x----7/6/7---x-----------------------------|
A----------------------------------------------------------|
E----------------------------------------------------------|

   ,  ,  ,
e-------10-12-13-12-10-------------------------------------|   }
B-10-12----------------14-11-------10----------------------|   }
G----------------------------12-13-------------------------|   }
D-------------------------------------12-------------------|   }
A----------------------------------------------------------|   }
E----------------------------------------------------------|   }
                                                               }
e-12-13-12-10----------------10----------------------------|   }
B-------------14-11-------10-------------------------------|   }
G-------------------12-13----------------------------------|   }
D----------------------------------------------------------|   }
A----------------------------------------------------------|   }
E----------------------------------------------------------|   }
                                                               } Play 2X
e-12-13-12-10----------------------------------------------|   }
B-------------14-11-------10-------------------------------|   }
G-------------------12-13----------------------------------|   }
D----------------------------12----------------------------|   }
A----------------------------------------------------------|   }
E----------------------------------------------------------|   }
                                                               }
e-----10-------------------------|                             }
B-/10------10--------------------|                             }
G-------------10-------12--10----|                             }
D-------------------12--------12-|                             }
A--------------------------------|                             }
E--------------------------------|                             }
[ Tab from: http://www.guitartabs.cc/tabs/p/phish/stash_tab_ver_3.html ]
   ,
e----------------------------------------------------------|
B----------------------------------------------------------|
G--------------12--------14--12/11h12-(12)/14~~~-----------|
D-12-11--11-14-----12-15-----------------------------------|
A----------------------------------------------------------|
E----------------------------------------------------------|
   ,
e----------------------------------------------------------|
B----------------------------------------------------------|
G--------------12--------14--12/11h12-9~~h10p9h10p9~~~-----|
D-12-11--11-14-----12-15-----------------------------------|
A----------------------------------------------------------|
E----------------------------------------------------------|
   ,
e----------------------------------------------------------|
B----------------------------------------------------------|
G--------------12--------14--12/11h12-(12)/14~~/15/14~~~---|
D-12-11--11-14-----12-15-----------------------------------|
A----------------------------------------------------------|
E----------------------------------------------------------|
   ,
e---------------------------------------------------------------------------------|
B---------------------------------------------------------------------------------|
G-14--14/15--14/13/12--14--13-12------12------------------------------------------|
D--------------------------------15------15-14-12-15--14-12-14--12/11-------------|
A---------------------------------------------------------------------12----------|
E-------------------------------------------------------------------------12/10/9-|
  ,
e----------------------------------------------------------|
B----------------------------------------------------------|
G-----------------------------------12-12/15~--------------|
D-----------------------11-14-11-14------------------------|
A-----------10-13-10-13------------------------------------|
E-9-12-9-12------------------------------------------------|


e--------------------------------------10------------------|
B--------------------------8---9---/10-----/10--6--/8~~~-x6|
G-7-------7---9---10---------------------------------------|
D---7p6h7---x---x----7/6/7---x-----------------------------|
A----------------------------------------------------------|
E----------------------------------------------------------|

e--------------------------------------10------------------|
B--------------------------8---9---/10-----/10-6----8--6---|
G-7-------7---9---10------------------------------7------7-|
D---7p6h7---x---x----7/6/7---x-----------------------------|
A----------------------------------------------------------|
E----------------------------------------------------------|

e--------------------------------------10------------------|
B--------------------------8---9---/10-----/10--6--/8~~~-x6|
G-7-------7---9---10---------------------------------------|
D---7p6h7---x---x----7/6/7---x-----------------------------|
A----------------------------------------------------------|
E----------------------------------------------------------|

e--------------------------------------10------------------|
B--------------------------8---9---/10---------/10-6~~-----|
G-7-------7---9---10------------------------------------7--|
D---7p6h7---x---x----7/6/7---x-----------------------------|
A----------------------------------------------------------|
E----------------------------------------------------------|

During the verses, these are the 2 chords used:
e------------------|
B-----8-------6----|
G-----7-------5----|
D-----x-------x----|
A-----7-------5----|
E------------------|

To go into the "ohh's," play:
e---------------------------------|
B-----15///-(slide down a lot)----|
G---------------------------------|
D---------------------------------|
A---------------------------------|
E---------------------------------|

Then play this twice . . .
e--------------------------------------------------------------------|
B--------------------------------------------------------------------|
G-9-9/14~-13-14~~-9/7-7-7/14~-13-14~~-10/9-9-9/14~-13-14~~-9/7-7~~~--|
D--------------------------------------------------------------------|
A--------------------------------------------------------------------|
E--------------------------------------------------------------------|

. . . and end the 2nd one with:
e------------------------------------------------|
B---10-----10------------------------------------|
G----------------8-9-8-7-------8-9-8-7-----------|
D-7------7---------------10-7----------10-6--/7--|
A------------------------------------------------|
E------------------------------------------------|

e---10-----10---7-9-7--------7-9-7--------7-8----|
B---------------------8-9-10-------8-9-10--------|
G-7------7----7----------------------------------|
D------------------------------------------------|
A------------------------------------------------|
E------------------------------------------------|

e------------------------------------------------|
B---10-----10------------------------------------|
G----------------8-9-8-7-------8-9-8-7-----------|
D-7------7---------------10-7----------10-6--/7--|
A------------------------------------------------|
E------------------------------------------------|

e---10-----10---7-9-7--------7-9-7--------7-8-10-|
B---------------------8-9-10-------8-9-10--------|
G-7------7----7----------------------------------|
D------------------------------------------------|
A------------------------------------------------|
E------------------------------------------------|

. . . and then directly following that play:
e---------------------------------10----10-----------------------------------------|
B-------------------------------------------8-9-8-7------8-9-8-7-------------------|
G-----------------------4---5--/7-----7-------------10-7---------10-6--/7----------|
D-------3---5---6------------------------------------------------------------------|
A-3p2h3---x---x---3/2/3---x--------------------------------------------------------|
E----------------------------------------------------------------------------------|

e-------------------------------------10-----10---7-9-7--------7-9-7--------7-8----|
B---------------------------9---11----------------------8-9-10-------8-9-10--------|
G-8-------8---10---11---------------7------7----7----------------------------------|
D---8p7h8---x----x----8/7/8---x----------------------------------------------------|
A----------------------------------------------------------------------------------|
E----------------------------------------------------------------------------------|

. . . and then the rest of the song is basically just variations of that, long and impossible to tab.

E-mail: annieco@comcast.net
Comments