Phish - Nicu Chords & Tabs

 

Nicu Chords & Tabs

Phish Chords & Tabs

Version: 2 Type: Tab 0 ratings
1 star 2 stars 3 stars 4 stars 5 stars
comments

Nicu Tab

#----------------------------------PLEASE NOTE---------------------------------#
#This file is the author's own work and represents their interpretation of the #
#song. You may only use this file for private study, scholarship, or research. #
#------------------------------------------------------------------------------#
#

			NICU by Phish


tabbed by TDog (tpl@acpub.duke.edu)

Verses:
  ----------------------------14b(1/2)----------------------|
  ----11--11-----9----9/11----------------------------------|
  ----12--12-----10--10/12----------------------------------|
  ----13--13-----11--11/13----------------------------------|
  ----------------------------------------------------------|
  ----------------------------------------------------------|

Riff:
  --------------9--9--9--9--8-------------8-----------------|
  -------8--11-----------------11--9--11-----11--8h11--9----|
  ----8-----------------------------------------------------|
  ----------------------------------------------------------|
  ----------------------------------------------------------|
  ----------------------------------------------------------|

[ Tab from: http://www.guitartabs.cc/tabs/p/phish/nicu_tab_ver_2.html ]
------------------------------------------------------------|
8------8--11--9--8h9---------8------------------------------|
---11-----------------10--8--------------------------10-----|
--------------------------------------------7/8--11---------|
------------------------------------------------------------|
------------------------------------------------------------|

------------------------------------------------------------|
9--8-------------8------------------------------------------|
------10--8--10---------------------------10--10--10--10----|
--------------------11--8--------7/8--11--------------------|
------------------------------------------------------------|
------------------------------------------------------------|


                  Chorus:
-----------------   ----------------------------------------|
----8------------   ------13--------14--------13------------|
10-----10--8-----   ------13--------13--------13------------|
-----------------   ------13--------15--------13------------|
-----------------   ----------------------------------------|
-----------------   ----------------------------------------|

------------------------------------------------------------|
11--------13------------------------------------------------|
12--------13------------------------------------------------|
13--------13------------------------------------------------|
------------------------------------------------------------|
------------------------------------------------------------|
Comments