Phish - Llama Chords & Tabs

 

Llama Chords & Tabs

Phish Chords & Tabs

Version: 2 Type: Bass Tab 0 ratings
1 star 2 stars 3 stars 4 stars 5 stars
comments

Llama Bass Tab

Song Title: Llama
Artist: Phish
----------------------------------------------

Llama
From: David Lionelli (LIONELLI_DAV@CSUSYS.CTSTATEU.EDU)

Intro:
G|--------------------------|
D|--7-7-5-4-----------------|
A|----------7-7-5-4---------|
E|------------------7--3--3-|

Verse:
G|-----------------------------------------------------------------------|
D|--------------------------------------------------------4-5--------4-5-|
A|--------4-5---------4-5---------4-5---------4-5--0--2-3-----0--2-3-----|
E|-0--2-3------0--2-3------0--2-3------0--2-3----------------------------|
[ Tab from: http://www.guitartabs.cc/tabs/p/phish/llama_btab_ver_2.html ]
G|-------------------------------------------2-------2--------2----------|
D|-----------------------------------------------------------------------|
A|--------4-5---------4-5-----------------0-----0--0----0-0--------------|
E|-0--2-3------0--2-3------2--2-2--1--1-1-----------------------2-3-4----|

Chorus:
G|------------------------------------------------------------------------|
D|------------------------------------------------------------------------|
A|-------------------------------------0--2--3--0--2--3-------------------|
E|-0--2--3--0--2--3--0--2--3--0--2--3--------------------0--2--3--0--2--3-|

G|----------------------2------2-------2-|
D|---------------------------------------|
A|-------0-----------0-----0-0----0--0---|
E|-2--4-----1--3--4----------------------|

Organ solo & guitar solo (same as chorus, with improvisation of course)

End
G|-----------------------------------|
D|----------7-7-5-4------------------|
A|-0---0------------7-7-5-4----------|
E|--------------------------7--3---0-|



Submitted by:  James Graves (Bassguy@aol.com)
Comments