Phish - Lawnboy Chords & Tabs

 

Lawnboy Chords & Tabs

Phish Chords & Tabs

Version: 1 Type: Bass Tab 0 ratings
1 star 2 stars 3 stars 4 stars 5 stars
comments

Lawnboy Bass Tab

"Lawnboy" by Phish
Tabbed By: Brian Flanders (ZBeAnErZ@aol.com)

This is a pretty easy song....nice laid back bluesy bass line

Notation: / = slide up      \ = slide down
               h = hammer on   
   *note: the notes directly over one another are struck at the same time
together.......

Intro:
G-----------------------------------------------------------------------------
--------------
D--2-------------------------4------------------------------------------------
-------------
A------2--3--4--------------------2--2--4-------------------------------------
-----------
E-----------------4--3--2--------------------0  (Let
Ring..........)------------------------

Through out the night........
[ Tab from: http://www.guitartabs.cc/tabs/p/phish/lawnboy_btab.html ]
G-----------------------------------------4----------------------4--3---------
-------------
D--2-----------------------2------------------2-------------4-----------------
-----2------
A------4--3--2----2--4------4--3--2------------4--3--2---------------0--3--5--
-------
E-----------------------------------------------------------------------------
---------------
            
G--------------6--------------------------------------------4-----------------
-------------
D------------------------------------4----------4//6-----6----2---------------
------------
A--2--3--4--------------------4--------4--2-----------------------------------
-----------
E--------------------4--3--2--------------------------------------------------
-------------
     And  the black oliander........
G-----------------------------------------------------------6-----------------
-------------
D--2-------------2---------------------------2--------------------------4----6
-6-6-------
A-----4--3--2------4--3--2---0-2--3--5------2--3--4---------------------------
----2--
E---------------------------------------------------------------4--3--2///////
/4-4-4-------

G--------4--------------------------------------------------------------------
--------------
D--4//6-----6--4--2-----------------------------------------------------------
-------------
A-----------------------------------------------------------------------------
--------------
E-----------------------------------------------------------------------------
---------------
   That's basically it...all you have to do is listen to the song play this
tab a little
   and you'll have it down.......repeat the main rhythm after that and it's
over...
   Have Fun!!! :p


Comments