Phish - Lawn Boy Chords & Tabs

 

Lawn Boy Chords & Tabs

Phish Chords & Tabs

Version: 1 Type: Tab 0 ratings
1 star 2 stars 3 stars 4 stars 5 stars
comments

Lawn Boy Tab

##################################################################################
# This file is the author's own work and represents their interpretation of the  #
# song. You may only use this file for private study, scholarship, or research.  #
##################################################################################

Date: Wed, 25 Feb 1998 18:28:58 PST
From: Jeff Johnston 
Subject: p/phish/lawn_boy_tab

song >>LAWN BOY
by   >>PHISH
on the album of the same name...
transcribed by jeff johnston

The trick is to get used to the off- beat, which isn't too tough, 
although you may want to listen to the album to get the feel right.
(By the way, the Slip Stitch and Pass version is COMPLETELY different-- 
it doesn't have a bass line or typical chords, but it still grooves 
immensely, which shows just how awesome these guys are.)
[ Tab from: http://www.guitartabs.cc/tabs/p/phish/lawn_boy_tab.html ]
e=-12--11-----9---7--------7--------9-----7---------------------------
B=-10--9------9---7------7----------9-----7---------------------------
G=-10--9------8---7----7------------8-----7---------------------------
D=-10--9------9---7--7--------------9-----7---------------------------
A=------------9---7-----------------9-----7---------------------------
E=--------------------------------------------------------------------
             
e=-------------------9-----7---------------9-----7--------------------
B=-------------------9-----7---------------9-----7--------------------
G=-------------------8-----7---------------8-----7--------------------
D=-------------------9-----7---------------9-----7--------------------
A=-------------------9-----7---------------9-----7--------------------
E=--------------------------------------------------------------------
e=-------------------------7--5--4------------------------4---------5-
B=-------------------------9--7--5------------------------4---------5-
G=-------------------------7--5--4------------------------5---------6-
D=-------------------------9--7--6------------------------4---------5-
A=-------------------------7--5--4------------------------6---------7-
E=-------------------------7--5--4------------------------4---------5-

e=------7------------------6------------5------------9-----7----------
B=------7------------------6------------5------------9-----7----------
G=------7------------------6------------5------------8-----7----------
D=------7------------------6------------5------------9-----7----------
A=------7------------------6------------5------------9-----7----------
E=------7------------------6------------5-----------------------------

e=---------9-----7--7-----------5-7-5-4-3-0----------------------0----
B=---------9-----7--9--------7--------5-5-2----------------------1----
G=---------8-----7--7-----5-----------4-5-2----------------------2----
D=---------9-----7--9--7--------------6-5-2----------------------2----
A=---------9-----7--7-----------------4-3-0----------------------0----
E=------------------7-----------------4-3-0----------------------0----

e=------------9-----7---------------------------------...
B=------------9-----7------9-9--5-7-5----5-14-12-9-7-5...
G=------------8-----7---------------------------------...
D=------------9-----7---------------------------------...
A=------------9-----7------(SOLO-here's the beginning-...
E=--------------------same chord progression as verse)...

e=-12--11--10----9/10/9/10/9/10/9.....--------------------------------
E=-10---9---8----9---(trill this note)--------------------------------
B=-10---9---8----9----------------------------------------------------
G=-10---9---8----9----------------------------------------------------
D=-10---9---8----9----------------------------------------------------
A=--------------------------------------------------------------------
E=--(...and the end...)-----------------------------------------------

...the biggest thing to remember is: THE CHORDS ARE ENTIRELY SEPARATE 
FROM THE WORDS. Try to get the chords down with the rhythm, and then add 
the words-- fun, fun fun...


----------------------------------------------------------------------------

Comments