Phish - Horn Chords & Tabs

 

Horn Chords & Tabs

Phish Chords & Tabs

Version: 2 Type: Tab 0 ratings
1 star 2 stars 3 stars 4 stars 5 stars
comments

Horn Tab

   
----------------------------------------------------------
      Phish - Horn (transcribed by Chris McAleenan)
----------------------------------------------------------
Riff 1
                          E
E-|----------------------------|
B-|----------------------9-9-9-|
G-|----------------------9-9-9-|
D-|---------0------------9-9-9-|
A-|-0h10h12---12/14------7-7-7-|
E-|-----------------12-0-------|

 Riff 1 (4x guitar only, then twice with full band)

 E (with "Riff 1" continuing over chord)
 Whine whine car horn.

 E
 Now that you've decieved me
     G
 And played my name around
     D
 And hung those nasty fliers
    A
 On all the buildings in town
 F
 Dribbled my possessions
      C
 In a ring around the Earth
     Eb
 And bought and sold my self-control
     E
 For less than it was worth

 ["Riff 1" 2x]

 E
 Now I know the reason
          G
 That I'm feeling so forlorn
      Am
 I'll pick you up at eight as usual
 E
 Listen for my horn

Solo:

  G             Bm        F            Em7

e|-------------|12-------|------------|---------------|
B|----12-15-12-|---15-12-|---12-------|---------------|
G|o------------|---------|14-------14-|12----------12-|
D|o------------|---------|------14----|---------14----|
A|-------------|---------|------------|--(14-14)*-----|
E|-------------|---------|------------|---------------|


  Eb        G         A7        D
e|---------|---------|---------|----------|--------|
B|---------|12-------|---------|----------|--------|
G|14-12-14-|---12----|14-12----|----------|--------|
D|---------|------14-|------14-|-----12---|--------|
A|---------|---------|---------|(13*)-----|--------|
E|---------|---------|---------|----------|--------|


  Bbmaj7       Am7      Bbmaj7    | G
E|------------|------------|------|----|
B|------------|13----------|------|-12-|
G|---------14-|---14-------|---14-|---o|
D|---12-15----|---------12-|15----|---o|
A|13----------|-----13-----|------|----|
E|------------|------------|------|----|


 |Ebmaj7   Dbmaj7  Cm7         B    (full distortion)
E|--------|8------|-----------|-----------|
B|11-8-11-|--11-8-|---8-------|-----4-7-4-|
G|--------|-------|10------10-|8----------|
D|--------|-------|-----10----|-----------|
A|--------|-------|-----------|-----------|
E|--------|-------|-----------|-----------|
[ Tab from: http://www.guitartabs.cc/tabs/p/phish/horn_tab_ver_2.html ]
  Ebm    A        Abm     G6b5    B       Db     Gb
E|4-----|--------|-------|-------|-------|------|----------|
B|--7-4-|--4-----|-------|-------|4------|------|----------|
G|------|6-----6-|4----4-|6--4-6-|---4---|6-4---|----------|
D|------|----6---|---6---|-------|-----6-|----6-|4---------|
A|------|--------|-------|-------|-------|------|----------|
E|------|--------|-------|-------|-------|------|----------|

  Dmaj7    Dbm7   Dmaj7  Dbm7    Eb      E        Gb
                                             /S
e|--------|------|4-5-7-|7--4---|6------|--7-----|-9-------|
B|--------|5---5-|------|-----5-|---8-9-|9--9-11-|---11-12-|
G|------6-|--6---|------|-------|-------|--------|---------|
D|--4-7---|------|------|-------|-------|--------|---------|
A|5-------|------|------|-------|-------|--------|---------|
E|--------|------|------|-------|-------|--------|---------|

  G         A         Bb            Bb6/Ab    Gbmaj7b5
e|---------|---------|-------------|15-------|------------|
B|12-14-15-|14-15-17-|18--15-18-15-|---18-15-|---15-------|
G|---------|---------|-------------|---------|17-------17-|
D|---------|---------|-------------|---------|------17----|
A|---------|---------|-------------|---------|------------|
E|---------|---------|-------------|---------|------------|

  Em7b5         Eb       Dm7       Db/Ab
e|-------------|--------|---------|--------|
B|------8-10-8-|11-10-8-|6--6-8-6-|9-8---6-|
G|15-----------|--------|---------|----5---|
D|-------------|--------|---------|--------|
A|-------------|--------|---------|--------|
E|-------------|--------|---------|--------|

  C            Em7    Bb
e|------------|5-----|--------|
B|5-----5-8-5-|--8-5-|--5-----|
G|------------|------|7-----7-|
D|------------|------|----7---|
A|------------|------|--------|
E|------------|------|--------|

  Am7      Ab    Cm7  Ab7       Adim7  Bb        Bdim7
e|--------|----------|---------|------|---------|------|
B|--------|----------|7--------|------|---------|6-----|
G|5-----5-|7-5-7-8-5-|---5-7-5-|8-7-5-|7--7-8-7-|--8-7-|
D|----7---|----------|---------|------|---------|------|
A|--------|----------|---------|------|---------|------|
E|--------|----------|---------|------|---------|------|

  Cm           Eb7/Db Ab/C Abm/B Eb/Bb Am7b5 Ab6 Bb   Eb

e|------------|---6--|----------|-----------|--------|----|
B|--------6---|8-----|9---------|8\---------|6\\-----|(4)-|
G|8-----8---8-|------|----------|-----------|--------|----|
D|------------|------|----------|-----------|--------|----|
A|------------|------|----------|-----------|--------|----|
E|------------|------|----------|-----------|--------|----|

Outro:

Riff 1 (2x)

 E (with "Riff 1" continuing over chord)
 Whine whine car... horn.


-------------------------------------------------------------------
Thanks to David McCallum who I got this tab. from!..

  You can contact me with any comments at "disco_stu12@hotmail.com"
-------------------------------------------------------------------
Comments