Phish - Fluffhead Chords & Tabs

 

Fluffhead Chords & Tabs

Phish Chords & Tabs

Version: 2 Type: Tab 0 ratings
1 star 2 stars 3 stars 4 stars 5 stars
comments

Fluffhead Tab

   
#----------------------------------PLEASE NOTE---------------------------------#
#This file is the author's own work and represents their interpretation of the #
#song. You may only use this file for private study, scholarship, or research. #
#------------------------------------------------------------------------------#
Date: Sat, 16 Sep 1995 13:09:29 -0500
From: jes@noc.ans.net (Jason Sonnenschein)
Subject: Phish Junta_Album.tab Part2

I take no credit for the following tab... I found it at a Phish web site...


Phish - FluffHead

Transcription by Eric Berman (ericbe@microsoft.com)

Click here for the lyrics page for this song.

Some chords that are useful:
   C(I)  D9/11(I)  G6(I)   F2(I)  G(II)  F2(II)
        P        P        P      P
E|--0--------0------10-------8------3------3--
B|--1--------3-------8-------6------0------1--
G|--0--------0-------0-------0------0------2--
D|--2-3-2----4-5-4---9-10-9--7-8-7--0------3--
A|--3--------5------10-------8------2---------
E|----------------------------------3---------

The additional notes shown after each chord rock up and back to the sus- 4
version of the chord; listen to the song and you'll hear where that note
goes.

The song starts out like this:

|: C(I) D(I) G(I) F(I) :| (4x, I think)

Then

G(II) F2(II) 4x

G(II)     F2(II) G(II)   F2(II)
==================================
       G(II) F2(II) G(II)   F2(II)
==================================
G(II)     F2(II)  G(II)   F2(II)
==================================
          G(II)    F2(II) G(II)   F2(II)
===================================

C(I) D(I) G(I) F(I) C(I) D(I) G(II)
                              Fluff-Head!

C(I) D(I) G(I) F(I) C(I) D(I) G(II)
                              Fluff-Head!

Next verses just like the first


******************************************************************************************************

******************************************************************************************************


Transcription by Tim Corley (of Hoobis Doobis)
Typed in by Neil Berkman (berkman@cs.umass.edu)
Minor editorials by Eric Berman (ericbe@microsoft.com)

These are played twice:
                                             H
E|-------------9-10----12-10-9----------9--9-10-9------------------|
B|-------10-12-----------------10-------10---------------9-12------|
G|-11-12------------12------------11----11-------------9-----------|
D|-----------------------------------12-12-----------9-------------|
A|------------------------------------------------11---------------|
E|-----------------------------------------------------------------|

   H
E|-9-------------------------|
B|---12------------10--------|
G|---------------9-----------|
D|------11----11---------11--|
A|---------12---------12-----|
E|---------------------------|

Then the following phrase and chords are repeated twice:

E|----------------|   |: E A A/B E A A/B E A A/B D :|
B|----------------|
G|---------4------|
D|---4-6-7--------|
A|-7---------7----|
E|----------------|

Then this twice:

E|--------7-8-7-----|
B|-7-8-10-------8---|
G|----------------7-|
D|------------------|
A|------------------|
E|------------------|  G C D G C D G C D C D

The fingerings are:

   C   D  G
E:-3---5--10-|
B:-1---3--8--|
G:-0---0--0--|
D:-2---4--9--|
A:-3---5--10-|
E:-----------|

                                                       C/E
                                                       ^
E|-----------------------------------------------5-8-0-----------|
B|-3-----------------------3-----3-----3-6-0-3-6-----1-----------|
G|---------------2-----2-4---2-4---2-4---------------0-----------|
D|-----0-3-3-0-3---0-3-------------------------------2-----------|
A|---2-----------------------------------------------3-----------|
E|---------------------------------------------------0-----------|

The Chase:  (1:09)

E|-------------------------------------------------------|
B|-------------------------------------------------------|
G|-5-2-0-4-0---0-----------------------------------------|
D|-----------3---2---0-3-2-----3-0---2-3-2-3---3-0---2---|
A|-----------------3-------3-1-----1---------1-----1-----|
E|-------------------------------------------------------|


E|-----------------|
B|-----------------|
G|-2---0-----------|
D|---3---2-3-0-2---|
A|---------------3-|
E|-----------------|

  rake
E|-12-10-------------------------------------------|
B|-X-----11-8--------------------------------------|
G|-X----------10--------------10-7----9-7---5------|
D|-X-------------10-8------10------10-----8---7----|
A|--------------------10-8-------------------------|
E|-------------------------------------------------|

E|-------------------------|
B|-------------------------|
G|-------------------------|
D|---5-8-7-----8-5---7-8-7-|
A|-8-------8-6-----8-------|
E|-------------------------|

E|-----------------0-2-3-0---2---------------------|
B|-------------------------3---3-1-3-0-----1-0-----|
G|-------------2-4---------------------0-2-----0---|
D|-5-4-----0-2-----------------------------------3-|
A|-----0-2-----------------------------------------|
E|-------------------------------------------------|

E|--------------------------------------------------------------------|
B|--------9-8-----------5-4-------------------------------------------|
G|---8-10-----8-6-3-4-6-----4-2-------5-4-----5-2---4-5-4-5---5-2---4-|
D|-10---------------------------4-5-7-----5-3-----3---------3-----3---|
A|--------------------------------------------------------------------|
E|--------------------------------------------------------------------|

E|-------------------------------------------------------|
B|-------------------------------------------------------|
G|-5-2-0-4-0---0-----------------------------------------|
D|-----------3---2---0-3-2-----3-0---2-3-2-3---3-0---2---|
A|-----------------3-------3-1-----1---------1-----1-----|
E|-------------------------------------------------------|
[ Tab from: http://www.guitartabs.cc/tabs/p/phish/fluffhead_tab_ver_2.html ]
                   |--Half time->
E|-----------------------------------------0---2---------------------|
B|-------------------------------------------3---3-1-3-0-----1-0-3-0-|
G|-2---0-----------2-0-4-0---0-----------0---------------0-2---------|
D|---3---2-3-0-2-----------3---2---0-3-2-----------------------------|
A|---------------3---------------3-----------------------------------|
E|-------------------------------------------------------------------|

                                 |--Full Speed->
E|-----------------------------------------------------------------|
B|---2-------------------------------------------------------------|
G|-2---2-0-2-------0---2-0-------4-----2-------------0-----5-2-0---|
D|-----------4-0-2---4-----2-4-0---5-4---5-4-0-4-0-2---4-0---------|
A|-----------------------------------------------------------------|
E|-----------------------------------------------------------------|

E|-----------------------------------------------------------------|
B|---------------------------------2---------------4---------------|
G|-3-2-----4-5-2-0-4-0---0-----4-2---2---2-----6-4---4---4---------|
D|-----2-3-------------3---2-0---------5---4-2---------7---6-4-----|
A|-----------------------------------------------------------------|
E|-----------------------------------------------------------------|

E|----------------0---2--------------------------------------------|
B|-----5------------3---3-1-3-0-----1-----0------------------------|
G|-8-6--5---5-------------------0-2---2-0---0---0------------------|
D|--------8---7-5-----------------------------3---2---0-3-2--------|
A|--------------------------------------------------3--------------|
E|-----------------------------------------------------------------|

                                                              E
E|---------------------------------------------------------------0-|
B|---------------------------------------------------------------0-|
G|--------------------------------2---0--------------------------1-|
D|-----3-0---2-3-2-3---3-0---2------3---2-3-0-2---0--------------2-|
A|-3-1-----1---------1-----3--------------------3---2-3-0-2------2-|
E|----------------------------------------------------------3-0--0-|

Who Do? We Do!:  (2:21)

E|-------------16----------------------------14-15-17-18-20--|
B|----14----13----14-12-------------14-16-17-----------------|
G|-------15-------------13-----------------------------------|
D|-16----------------------14----16--------------------------|
A|----------------------------16-----------------------------|
E|-----------------------------------------------------------|

Then this phrase seven times:

E|-21-19--------|
B|-------19-----|
G|----------18--|
D|--------------|
A|--------------|
E|--------------|

E|16----------------------------------------15----------14----------|
B|------------------------------------14-16----16-14-16----15-13-15-|
G|---13-12-------13-12----------12-14-------------------------------|
D|---------13-11-------13-11-13-------------------------------------|
A|------------------------------------------------------------------|
E|------------------------------------------------------------------|

                           /S       /S       /S       /S       /S
E|-14----------14----------------------------------------------------|
B|----15-13-15----15-13-------12-------13-------14-------15-------16-|
G|----------------------11-12----12-13----13-14----14-15----15-16----|
D|-------------------------------------------------------------------|
A|-------------------------------------------------------------------|
E|-------------------------------------------------------------------|

      /S       /S       /S       /S
E|-----------------------------------------------------------------|
B|-------17-------18-------19-------20----------20-----------------|
G|-16-17----17-18----18-19----19-20----20-18-20----20-18-20-18-----|
D|-------------------------------------------------------------19--|
A|-----------------------------------------------------------------|
E|-----------------------------------------------------------------|

E|----------------------------------------------19-19-19-19--------|
B|-------------------19----------19--------------------------------|
G|----------------------19-17-19----19-17----18--------------------|
D|-17----------17-19----------------------19-----------------------|
A|----18-16-18-----------------------------------------------------|
E|-----------------------------------------------------------------|

Now these chords:

B (4x) C# (2x) C (1x) D (3x) E (2x) F (3x) F#m/C#? (5x)

These are fingered as:

   B  C#  C  D   E    F  F#m/C#?
E:-7--9---8--10--12--13--14---
B:-7--9---8--10--12--13--14---
G:-8--10--9--11--13--14--14---
D:-9--11--10-12--14--15--15---
A:-----------------------16---
E:----------------------------

Then these chords are played 4 times:
(This is under the bluesy piano part that begins at 3:15)

|: Em F#m G A :|

Then a D chord is played, followed by these chords 7 times:

|: A E C D :|

Then A E C again, and then these:

Bb (3x) C (5x) Bb (3x) C (5x) D (4x) Em (3x) F#7? (2x) B5 (2x)

B2 (4x) C# (2x) C (1x) D (3x) E (2x) F (3x)

These are fingered as follows:

   Bb  C  D   E   F#7?  B1  B2  C#  F  B5
E:-6---8--10--12--14----19--7---9---13---
B:-6---8--10--12--14----19--7---9---13---
G:-7---9--11--12--15----20--8---10--14---
D:-8---10-12--14--14----21--9---11--15-9-
A:----------------16-------------------9-
E:----------------14-------------------7-

Then the following chords are played:

F#m/C#? (5x) Gm/D? (4x) G#m/D#? (3x) Am/E? (2x) A#m/F? (1x) Bm/F#? (1x)

These are fingered as:

    F#m/C#? Gm/D? G#m/D#? Am/E? A#m/F? Bm/F#?
E:--14------15----16------17----18-----19-----
B:--14------15----16------17----18-----19-----
G:--14------15----16------17----18-----19-----
D:--15------16----17------18----19-----20-----
A:--16------17----18------19----20-----21-----
E:--------------------------------------------

Clod:  (4:12)

This is repeated three times:

   ?                 ?                   slide down from this
E|-6----------5------12-12-12--12-12-12--22-------------------------|
B|-6--------5---5----10-10-10--10-10-10-----------------------------|
G|-6------6------6---10-10-10--10-10-10-----------------------------|
D|-8-----8---------8-10-10-10--10-10-10-----------------------------|
A|-7----7-----------------------------------------------------------|
E|-6--5-------------------------------------------------------------|


G          C  Am7 D
Fluff-Head          (repeat and fade)

Then play opening theme from Fluffhead.
Comments