Phish - Farmhouse Chords & Tabs

 

Farmhouse Chords & Tabs

Phish Chords & Tabs

Version: 1 Type: Tab 0 ratings
1 star 2 stars 3 stars 4 stars 5 stars
comments

Farmhouse Tab

   
#----------------------------------PLEASE NOTE--------------------------------#
#This file is the author's own work and represents their interpretation of the#
#song. You may only use this file for private study, scholarship, or research.#
#-----------------------------------------------------------------------------#

Date: Wed, 28 Jan 1998 15:01:15 -0500 (EST)
From: WlfmnsBro5 
Subject: TAB: Farmhouse_by_PHISH

Transcription By: David Anderson
*As played by PHISH 11/28/97 live in Worcester MA*

Intro lick:
e[---------10------]
B[------10---------]
G[--/11--------11--]
D[-----------------]
A[-----------------]
E[-----------------]

Verse:
    D           A        Bm            G            D           A
e[--------2-----------0-----------------------3--3--------2---------0--]
B[--------3-----------2-----------3-----------3--3--------3---------2--]
G[-----2--------------2-----------4-----------0--0-----2------------2--]
D[--0--------0-----2-----------4--------------0-----0--------0----2----]
A[--------------0--------0--2--------------2--------------------0------]
E[-----------------------------------2--3------------------------------]
[ Tab from: http://www.guitartabs.cc/tabs/p/phish/farmhouse_tab.html ]
Verse Cont.
       D          A
e[----------2--2--0-0-0-0-0-0-0--]
B[----------3--3--2-2-2-2-2-2-2--]
G[--------2----2--2-2-2-2-2-2-2--]
D[--2--0-------0--2-2-2-2-2-2-2--]
A[----------------0-0-0-0-0-0-0--]
E[-------------------------------]

Chorus:
    Bm          A       D            G       Bm          A
e[--------2----------0---------2----------3--------2---------0--]
B[--------3----------2---------3----------3--------3---------2--]
G[--------4----------2-------2------------0--------4---------2--]
D[-----4-----------2-------0--------------0-----4----------2----]
A[--2--------2--0-------0---------0----2-----2--------2--0------]
E[-----------------------------------3--------------------------]

Chorus Cont.
       Bm          G
e[-----------2-----------3--]
B[-----------3-----------3--]
G[-----------4-----------0--]
D[--------4--------------0--]
A[--0--2--------2-----2-----]
E[-----------------3--------]


Repeat chorus twice*


NOTE*
There are 2 guitar solos but they are are purley improvised
because I've checked other versions so just solo in D major
over the verse chords.

That's it! Hope it helps.
E-Mail me for other tabs or Tape trades.
Comments