Phish - 2001 Chords & Tabs

 

2001 Chords & Tabs

Phish Chords & Tabs

Version: 1 Type: Tab

2001 Tab

hey, this is a neat song with an ungodly climax


E]--------8---------------------------|
B]-----8-----5--4---------------------|
G]--5---------------------------------|
D]------------------------------------|
A]------------------------------------|
E]------------------------------------|

odd jam then
[ Tab from: http://www.guitartabs.cc/tabs/p/phish/2001_tab.html ]
E]--------8---------------------------|
B]-----8-----4--5---------------------|
G]--5---------------------------------|
D]------------------------------------|
A]------------------------------------|
E]------------------------------------|

more odd jam then the climax...

E]--------8-------------------------10--12--13--15----12--13--15---17--19-20-|
B]-----8-----5--6-------10--12--13-------------------------------------------|
G]--5------------------------------------------------------------------------|
D]---------------------------------------------------------------------------|
A]---------------------------------------------------------------------------|
E]---------------------------------------------------------------------------|