Phil Keaggy - Dels Bells Chords & Tabs

 

Dels Bells Chords & Tabs

Phil Keaggy Chords & Tabs

Version: 1 Type: Tab 0 ratings
1 star 2 stars 3 stars 4 stars 5 stars
comments

Dels Bells Tab

Artist:Phil Keaggy
Song: Del's Bells (corrections)
Album: Acoustic Sketches
Transcribed by: Darren Armentrout

Thank you Dan Libertino for the transcription to Del's Bells in Phil's 
book Acoustic Sketches.  The following is a correction of the last 
page (pg 41) of the song.  The rest seems to be right on.  

time: (approx 1:00)
|----------------|----------------|----------------|----------------|
|----------------|---5-----10-----|--7-------3---5-|-------------10-|
|----------------|---4-----9------|--6-------2---4-|-------------9--|
|----------------|---6-----11-----|--7-------4---6-|-------------11-|
|----------------|----------------|----------------|----------------|
|---0--0--0--0---|-----0-0----0-0-|-----0-0----0---|----0----0-0----|

[ Tab from: http://www.guitartabs.cc/tabs/p/phil_keaggy/dels_bells_tab.html ]
|----------------------|---------------------|------------------------|
|-----------7------8---|-----------------12--|------------10--------7-|
|-----------6------7---|-----------------11--|------------9---------6-|
|-----------7------9---|-----------------12--|------------11--------7-|
|----------------------|---------------------|------------------------|
|-----0--0-------0-----|--0-0----0----0------|------0--0---------0----|



|----------------------|---------------------|----------0--2--0-------|
|--------3--------5----|------0--------------|-------3--3--3--0--3--0-|
|--------2--------6----|------0--------2-----|-------2--0--------2--0-|
|--------4--------5----|------2--------4-----|----4--------4--5--4--0-|
|----------------------|---------------0-----|-0----------------------|
|------0-------0--0----|---0--0-----0--0---0-|------------------------|


|----------------|----9-----------|----------------|----------------|
|----------5/7---|-8----<12>--10--|--7-----3-------|------2---------|
|--2/4--5--5/7---|-9----<12>--11--|--7-----4-------|------2---------|
|--2/4--5--5/7---|-9----<12>--12--|--9-----5-------|------2---------|
|--3/5--7--------|----------------|----------------|----------------|
|----------------|----------------|----------------|----------------|

Enjoy!  Email me at Trout77@rock.com with comments or questions.
Comments