Phenix - Lip On The Sun Chords & Tabs

 

Lip On The Sun Chords & Tabs

Phenix Chords & Tabs

Version: 1 Type: Tab 0 ratings
1 star 2 stars 3 stars 4 stars 5 stars
comments

Lip On The Sun Tab

   
Song : Lip on the Sun
Artist : Phenix
Album : Lip on the Sun (single) and My Backyard EP

verses :

GTR1: G-4----4-0-5-0-4-0-5-0-4-0-5-0-4-0-5-0-4-0-5-0-4-0-5-

GTR2: D------7-7-7-7-7-7-7-7-5-5-5-5-5-5-5-5-7-7-7-7-7-7-7-
      A------7-7-7-7-7-7-7-7-5-5-5-5-5-5-5-5-7-7-7-7-7-7-7-
      E------5-5-5-5-5-5-5-5-3-3-3-3-3-3-3-3-5-5-5-5-5-5-5-

GTR1: G-0-

GTR2: D-7-
      A-7-
      E-5-

pre-chorus : 

GTR1: G-0-------5/4/2/0-------5/4/2/0-4-4-4-

GTR2: D-2-2-2-2-7-7-7-2-2-2-2-7-7-7-2-2-2-2-
      A-2-2-2-2-7-7-7-2-2-2-2-7-7-7-2-2-2-2-
      E-0-0-0-0-5-5-5-0-0-0-0-7-7-7-0-0-0-0-

chorus : 

GTR1: G-4-4-4-4-4-4-4-4-5^4^-4-0-5-0-4-0-5-0-5^4^-
[ Tab from: http://www.guitartabs.cc/tabs/p/phenix/lip_on_the_sun_tab.html ]
GTR2: G-----------------7--------------------7----
      D-7-7-7-7-7-7-7-7-7-5--7-7-7-7-7-7-7-7-7-5--
      A-7-7-7-7-7-7-7-7-5-5--7-7-7-7-7-7-7-7-5-5--
      E-5-5-5-5-5-5-5-5---3--5-5-5-5-5-5-5-5---3—

after chorus :

GTR1: G-0---------

GTR2: D-2-4---4-4-
      A-2-4---4-4-
      E-0-2---2-2-

Solo : (GTR2 is just the verse rhythm over and over)

GTR1 : G-4-0-5-0-4-0-5-0-4-5-5-5-5-5-5-5-5-7-7-7-7-7-7-9-9-

B----------------12-12-12-12^15p14p12h15p14p12h15p14p12h15p
G-9-9-9-9-9h11h12------------------------------------------

e----------------------------------------------12/15/19-19-
B-14h15p14p12h15p14p12h15p14p12h15p14p12h15p14-------------

E-19-19-21p19h21p19-19-19-19-20p19h20p19-19-19-19-21p19h21p

e-19-19-19-19-21p19h21p19-19-19-19-19^/12------------------
B-----------------------------------------15/14/12----/9h10

G-04h5p4p0-h4h5p4p0-h4h5p4p0---h4p0h5p0-

(rhythm ends on G5)

The End...
Comments