Phaze - Saturday Afternoon Chords & Tabs

 

Saturday Afternoon Chords & Tabs

Phaze Chords & Tabs

Version: 1 Type: Bass Tab 0 ratings
1 star 2 stars 3 stars 4 stars 5 stars
comments

Saturday Afternoon Bass Tab

   
Song:Saturday Afternoon.

Band:Phaze

Music:Dante,Saji

Album:Phaze

Tabber:T4-TURBO

intro muffeld
g:-----------------------|
d:-----------------------|
a:------33--3-------11--1|
e:3--33-------1--11------|x2

Main riff with out guitar
g:----------------------|
d:----------------------|
a:------33--3-------11-1|(22):ever other time.
e:3--33-------1--11-----|x6

Part with guitar:
g:---------------------------|
d:---------------------------|
a:-------33--33--------11--11|
e:33--33--------11--11-------|X4
[ Tab from: http://www.guitartabs.cc/tabs/p/phaze/saturday_afternoon_btab.html ]
Chorus:
g:-------------------------------|
d:-------------------------------|
a:--------3-3-3-3---------1-1-1-1|
e:3-3-3-3---------1-1-1-1--------|x4

BRIDGE:PART A
g:-------------------------------|
d:-------------------------------|
a:--------3-3-3-3-5-5-5-5-3-3-3-3|
e:3-3-3-3------------------------|X2

PART B:
G:-------------------------------|
D:-------------------------------|
A:--------3-3-3-3-2-2-2-2--------|
E:3-3-3-3-----------------2-2-2-2|x2
WHEN YOUR DONE WITH THE WHOLE ORDER OF THE SONG...START OVER.
(NOT THE INTRO)END ON THIS RIFF.
Comments