Phaze - Hyper Time Rewind Chords & Tabs

 

Hyper Time Rewind Chords & Tabs

Phaze Chords & Tabs

Version: 1 Type: Bass Tab 0 ratings
1 star 2 stars 3 stars 4 stars 5 stars
comments

Hyper Time Rewind Bass Tab

Song:Hyper Time Rewind
Band:Phaze
Album:Phaze
Tabber:T4-TURBO

Main:Slap:
G:--------------------|
D:--------3-3--0-0-3-3|
A:--------------------|
E:2-2-2-2-------------|X6
[ Tab from: http://www.guitartabs.cc/tabs/p/phaze/hyper_time_rewind_btab.html ]
2nd: Finger
G:-------------------------|
D:-------------------------|
A:--------0-2-0-2-0-2-0-2--|
E:4-4-4-4-----------------2|X6

Start over and play to more times through and then go to the end:

Slap:
g:-------------------|
d:----7----5----3-5-7|
a:-------------------|
e:7----5----3--------|X4

Comments