Pharrell Williams - Happy Chords & Tabs

 

Happy Chords & Tabs

Pharrell Williams Chords & Tabs

Version: 1 Type: Bass Tab 0 ratings
1 star 2 stars 3 stars 4 stars 5 stars
comments

Happy Bass Tab

Pharrell Williams - Happy

Intro

G|--------------------------------|
D|-15-15-15-15-15-----------------|
A|--------------------------------|
E|--------------------------------|

Verse

G|----13-15-13-17-15-13----13-----|----13-15-13-17-----------------|
D|-15-------------------15----15--|-15-----------------------------|
A|--------------------------------|------------------8-6-------8---|
E|--------------------------------|----------------------8-6-4-----|


G|--------------------------------|----13-15-13-17-----------------|
D|---6-8-6-10-8-6---6-------------|-15-----------------------------|
A|-8--------------8---------------|------------------8-6-----------|
E|--------------------1-----------|----------------------8-6-44----|


Chorus...
[ Tab from: http://www.guitartabs.cc/tabs/p/pharrell_williams/happy_btab.html ]
G|---------------------------------------------10----|
D|---------11-----------10---------10----------------|
A|------11-----------10---------10----8-8--8-8-------|
E|-9-99-------8-8-88-------8-88----------------------|

Last one play...

G|---------------------------------------------10----|
D|---------11-----------10---------10----------------|
A|------11-----------10---------10----8-8--888----8--|
E|-9-99-------8-8-88-------8-88----------------------|


There's nothing really in the interlude bits however I Play this with the drum...


G|--------------------------------------|
D|--------------------------------------|
A|--------------------------------------|
E|-1--1-1---1--1-1---1--1-1---1--1-1----|



And thats it... Ive made a Video using this tab here...

http://www.youtube.com/watch?v=ZkpP-yV--bY

Have fun with it
Comments