Phantom Planet - Something Is Wrong Chords & Tabs

 

Something Is Wrong Chords & Tabs

Phantom Planet Chords & Tabs

Version: 2 Type: Tab 0 ratings
1 star 2 stars 3 stars 4 stars 5 stars
comments

Something Is Wrong Tab

Phantom Planet - Something is Wrong
By InfamousMars
Standard Tuning

Intro

e ----------------------2-----2-------|
b --------3-2-0-----------------------|
g --------0-------0---2-----2-----2---|
d ------0-------0---0-----0-----0-----|
a ----2-------------------------------|
e --3---------------------------------|

e ----------------------2-----2-------|
b --------3-2-0---------3-----3-------|
g --0-----0-------0---2-----2-----2---|
d ------0-------0---0-----0-----0-----|
a ----2-------------------------------|
e --3---------------------------------|

e ------------------------3-2-0-------|
b --------3-2-0-------------------0---|
g --0---0-------------0-3-------------|
d ------0---0---0---------------------|
a ----2-------------------------------|
e --3---------------3-----------------|

Verse

Burn me down if that's how everything's gonna
e ------2-----2-------------------------------------------|
b ------------------------2-----2-----------0-----0-------|
g ----2-----2-----2-------2-----2-----------0-----0-------|
d --0-----0-----0-------------------4-----------------2---|
a ----------------------4-----4---4-------2-----2---2-----|
e --------------------2-----2-----------0-----0-----------|

start.  With a flame from the heat
e ------------------------2-----2-------------------------|
b ------2-----2-----------3-----3-----------2-----2-------|
g ------2-----2---2-----2-----2-----2-------2-----2-------|
d ----2-----2---------0-----0-----0-----------------------|
a --0-----0-----0-------------------------4-----4-----4---|
e --------------------------------------2-----2-----2-----|

of the look on your face.  On a day 
e --------------------------------------------------------|
b ------0-----0-----------2-----2----------2-----2--------|
g ------0-----0-----------2-----2----------2-----2---2----|
d ----------2-----2-----2-----2-----2----2-----2----------|
a ----2---2-----2-----0-----0-----0----0-----0-----0------|
e --0-----------------------------------------------------|

like today could of made out every raindrop fallin' down
e ------2-----2---------0-------------------------------------------|
b ------3-----3---------2-----2------3-----3----------3-----3-------|
g ----2-----2-----2---2-------2------4-----4----------3-----3-------|
d --0-----0-----0------------------4-----4-----0--------------------|
a ------------------4-----4---0--2-----2-----2------1-----1-----1---|
e --------------------------2---------------------3-----3-----3-----|
[ Tab from: http://www.guitartabs.cc/tabs/p/phantom_planet/something_is_wrong_tab_ver_2.html ]
on your hair.
e -------------------------------------------------------|
b ------2-----2----------0---------------0-----0---------|
g ------2-----2----------0-------6-------0-----0---------|
d ----------------4--------------7-----------------2-----|
a ----4-----4-----4----2-------7-------2-----2---2-------|
e --2-----2----------0-----3/5-----5\0-----0-------------|

Now I fear that I may taste 
e ----------------------------------------3-----3--------|
b ------2-----2---------2-----2-----------0-----0--------|
g ------2-----2---------2-----2---------------------0----|
d ----2-----2-----2---2-----2-----2-----0-----0---0------|
a --0-----0-----0---0-----0-----0------------------------|
e ------------------------------------3-----3------------|

these tears rolling down my face, and realize 
e ------2-----2-----------3-----3---------2--------|
b ------3-----3-----------0-----0---------3--------|
g ----2-----2-----2-----------------0---2----------|
d --0-----0-----0-------0-----0---0---0-----0------|
a -------------------------------------------------|
e --------------------3-----3----------------------|

something is wrong with the light 
e ------0---------------------------2-----2-----------------|
b ------2--------3----------0-------3-----3---3-------0-----|
g ----2----------4----------0-----2-----2-------------0-----|
d -------------4----------0-----0-----0-----0---------------|
a --4-----4--2-------2------------------------------2-------|
e ----------------------3-----3-------------------0-----0---|

of the sun, and the color of the sky; with you 
e ---------------------------------------------------------------|
b ------2-------2-----2----------3-----3-----------0-----0-------|
g ------2-------2-----2----------4-----4-----------0-----0-------|
d ----2-------------------4----4-----4-----4-----------------2---|
a --0-----0---4-----4---4----2-----2-----2-------2-----2---2-----|
e ----------2-----2----------------------------0-----0-----------|

and everyone.
e -------------------|
b ------2-----2------|
g ------2-----2---2--|
d ----2-----2---2----|
a --0-----0----------|
e -------------------|     

Similar to Intro 

e ----------------------2-----2-------|
b --------3-2-0---------3-----3-------|
g ----------------0---2-----2-----2---|
d ------0-------0---0-----0-----0-----|
a ----2-------------------------------|
e --3---------------------------------|

e ----------------------2-----2-------|
b --------3-2-0---------3-----3-------|
g --------0-------0---2-----2-----2---|
d ------0-------0---0-----0-----0-----|
a ----2-------------------------------|
e --3---------------------------------|

e ------------------------3-2-0---0-0h2|
b --------3-2-0-----------------3---3--|
g --0-----0-----------0h3-3---------2--|
d ------0---------------------------0--|
a ----2-----------------------------0--|
e --3---------------3---------------2--|
Comments