Phantom Planet - Something Is Wrong Chords & Tabs

 

Something Is Wrong Chords & Tabs

Phantom Planet Chords & Tabs

Version: 1 Type: Tab 0 ratings
1 star 2 stars 3 stars 4 stars 5 stars
comments

Something Is Wrong Tab

Not a particularly difficult song to play.  Well done buying the Phantom
Planet cd.  As always, I welcome corrections and hope to see more 
Phantom Planet songs on the site.  Hoorah Southern California.


Intro

e --------------------2-----2-------|
b --------3-2-0-------3-----3-------|
g --------0-0-0-----2-----2-----2---| 
d ------0---------0-----0-----0-----|
a ----2-----------------------------|
e --3-------------------------------|Repeat, end with this:

e --------5-3-2---|
b --------3-3-3---|
g ----------------|
d ------0---------|
a ----2-----------|
e --3-------------|

Song

e ------2-----2-------------------------------------------|
b ------3-----3-----------2-----2-----------0-----0-------|
g ----2-----2-----2-------2-----2-----------0-----0-------|
d --0-----0-----0-------0-----0-----0---------------------|
a ----------------------------------------2-----2-----2---|
e --------------------2-----2-----2-----0-----0-----0-----|

e ------------------------2-----2-------------------------|
b ------2-----2-----------3-----3-----------2-----2-------|
g ------0-----0---------2-----2-----2-------2-----2-------|
d ----2-----2-----2---0-----0-----0-------0-----0-----0---|
a --0-----0-----0-----------------------------------------|
e --------------------------------------2-----2-----2-----|

e --------------------------------------------------------|
b ------0-----0-----------2-----2----------2-----2--------|
g ------0-----0-----------0-----0----------0-----0--------|
d ----------------------2-----2------2---2-----2-----2----|
a ----2-----2-----2---0-----0------0---0-----0-----0------|
e --0-----0-----0-----------------------------------------|

e ------2-----2----------------------------------------------------|
b ------3-----3---------2-----------3-----3----------3-----3-------|
g ----2-----2-----2-----2-----------2-----2----------0-----0-------|
d --0-----0-----0-----2-----------0-----0-----0--------------------|
a ------------------4-----4---0-2-----2-----2------2-----2-----2---|
e --------------------------2--------------------3-----3-----3-----|
[ Tab from: http://www.guitartabs.cc/tabs/p/phantom_planet/something_is_wrong_tab.html ]
e -------------------------------------------------------|
b ------2-----2----------0-------2-------0-----0---------|
g ------2-----2----------0-------0-------0-----0---------|
d ----0-----0-----0------------2-------------------------|
a ---------------------2---2-0-----0---2-----2-----2-----|
e --2-----2-----2----0---------------0-----0-----0-------|

e ----------------------------------------3-----3--------|
b ------2-----2---------2-----2-----------3-----3--------|
g ------0-----0---------0-----0--------------------------|
d ----2-----2-----2---2-----2-----2----------------------|
a --0-----0-----0---0-----0-----0-------2-----2-----2----|
e ------------------------------------3-----3-----3------|

e ------2-----2-----------3-----3---------2--------|
b ------3-----3-----------3-----3---------3--------|
g ----2-----2-----2---------------------2----------|
d --0-----0-----0---------------------0-----0------|
a ----------------------2-----2-----2--------------|
e --------------------3-----3-----3----------------|

e ----------------------------------2-----2-----------------|
b ------2----------3--------3-------3-----3-----------3-----|
g ------2--------2----------0-----2-----2-----2-------0-----|
d ----2--------0----------------0-----0-----0---------------|
a --4-----4--2-------2----2-------------------------2-------|
e ----------------------3-----3-------------------3-----3---|

e ---------------------------------------------------------------|
b ------2-------2-----2----------3-----3-----------0-----0-------|
g ------0-------2-----2----------2-----2-----------0-----0-------|
d ----2-------0-----0-----0----0-----0-----0---------------------|
a --0-----0------------------2-----2-----2-------2-----2-----2---|
e ----------2-----2-----2----------------------0-----0-----0-----|

e -------------------|
b ------2-----2------|
g ------0-----0------|
d ----2-----2-----2--|
a --0-----0-----0----|
e -------------------|       

Do intro again end like this:


e --------5-3-2-0-2---0h2---|
b --------3-3-3-3-3---3-----|
g --------------------2-----|
d ------0-------------0-----|
a ----2---------------------|
e --3-----------------------|
Comments