Phantom Planet - O C Chords & Tabs

 

O C Chords & Tabs

Phantom Planet Chords & Tabs

Version: 1 Type: Chords 0 ratings
1 star 2 stars 3 stars 4 stars 5 stars
comments

O C Chords

   
Hi, this is the whole theme song of the O.C.
Standard Tuning

Have Fun!

Chords
	Dm   	Bb  	F
e-	1	x	x
b-	3	x	x
g-	2	3	x
d-	x	3	3
a-	x	1	3
E-	x	1	1


Intro - same chords as verses

Verse 1

Dm                                                         Bb      F
We've been on the run, driving in the sun, looking out for number one,

	Bb            F     		Bb                F
California here we come, right back where we started from.

Dm                                                                Bb  F
Hustlers grab your guns; your shadow weighs a ton, driving down the 101

	Bb             F     		Bb         	  F
California here we come, right back where we started from.


Chorus
(Bb to F on every 4th strum, electric comes in on F)

California Here we come


Verse 2 (* = insert tabbed part there)

Dm                                               Bb      F
On the stereo, listen as we go, nothing's gonna stop me now,

	Bb *          F     		Bb                F
California here we come, right back where we started from.

Dm                                                    Bb      F
Pedal to the floor, thinking of the war, gotta get us to the show,

	Bb *         F     		Bb    		  F
California here we come, right back where we started from.

[ Tab from: http://www.guitartabs.cc/tabs/p/phantom_planet/o_c_crd.html ]
* e -----------3----------------------------------------|
  b --3--6---3-------3-6~-------------------------------|


Chorus (same as before)

 Instrumental  (acoustic plays same chords as verse)

e ---------------------------------------------------|
b ---------------------------------------------------|
g ---------------------------------------------------|
d --7--5-5--3-3--5--7---7--5-5--3-3--5--7------------|
a ---------------------------------------------------|
e ---------------------------------------------------|


e ---------------------------------------------------------|
b ---------------------------------------3>10--------------|
g ---------------------------------------------------------|
d 8>7--7--5-5--3-3--5--7---7--5-5--3-3--------------------|
a ---------------------------------------5--3--------------|
e ---------------------------------------------------------|

Bridge x2

e -----1----1----1--3--1-----1----1----1--3--1-------|
b --3----1----3-----------3----1----3----------------|
g ---------------------------------------------------|
d ---------------------------------------------------|
a ---------------------------------------------------|
e ---------------------------------------------------|

e -----1----1----1--3--1-----1----1--3--1-----1------|
b --3----1----3----------------3-----------1---------|
g -------------------------3-------------------------|
d ---------------------------------------------------|
a ---------------------------------------------------|
e ---------------------------------------------------|

     Chorus (start on F) x2

End on Dm

Hope you like it.
Comments