Phantom Planet - Making A Killing Chords & Tabs

 

Making A Killing Chords & Tabs

Phantom Planet Chords & Tabs

Version: 1 Type: Bass Tab 0 ratings
1 star 2 stars 3 stars 4 stars 5 stars
comments

Making A Killing Bass Tab

Artist:Phantom Planet
Song:Making A Killing
Album:Phantom Planet
Track #:5
Tabbed By:Afibassist4k

Main Riff:
G|-7-----------------7-----------------------------------------------------|
D|--99-7--------------99-7------7-9-9--------------------------------------|
A|------99-77-------------99-7-9-------------------------------------------|
E|-----------10-7-7--------------------x3----------------------------------|

G|7-----------------------------------------------------------------------|
D|--------------------------------99-7------------------------------------|
A|-5h7777-5h7777-5h7777-5h7777--------99-77-------------------------------|
E|-----------------------------------------10-77--------------------------|

G|7------------------------------------------------------------------------|
D|--------------------------------99-7------------99-7------7-99-----------|
A|-5h7777-5h7777-5h7777-5h7777--------99-77-----------99-7-9---------------|
E|-----------------------------------------10-77---------------------------|

G|-7------------------7---------------7------------------------------------|
D|--99-7------7-99-----99-7------------99-7------7-99----------------------|
A|------99-7-9-------------99-77-----------99-7-9--------------------------|
E|------------------------------10-77--------------------------------------|

G|7-----------------------------------------------------------------------|
D|--------------------------------99-7------------------------------------|
A|-5h7777-5h7777-5h7777-5h7777--------99-77-------------------------------|
E|-----------------------------------------10-77--------------------------|
[ Tab from: http://www.guitartabs.cc/tabs/p/phantom_planet/making_a_killing_btab.html ]
G|7---------------------------------11-11-9--------------------------------|
D|-----------------------------------------11-11-99------------------------|
A|-5h7777-5h7777-9h1010101010101010----------------12-9-9------------------|
E|-------------------------------------------------------------------------|

G|-7------------------------------------------------------------------------|
D|--99-7--------------99-7------7-9-9---------------------------------------|
A|------99-77-------------99-7-9--------------------------------------------|
E|-----------10-7-7-7------------------x2-----------------------------------|

G|--------------------------8-10-12----------------------------------------|
D|------------------------11-------11-11-9---------------------------------|
A|--------------------7-10----------------11-11-10-9-7---------------------|
E|-9--99---9--99---9----------------------------------99-------------------|

G|-------------------------------------------------------------------------|
D|-11-11-9-----------------------------------------------------------------|
A|--------11-11-10-9-7---7h9999-7h9999-10h12121212121212121212121212-------|
E|--------------------99---------------------------------------------------|

G|-13-13-11----------------------------------------------------------------|
D|---------13-13-11-11-----------------------------------------------------|
A|--------------------14-11-11---------------------------------------------|
E|-------------------------------------------------------------------------|

G|---------------------------------------------------9---------------------|
D|-11-11-9------------------11-11-9----------9-11-11-----------------------|
A|--------11-11-10-9-7-------------11-11-9-11------------------------------|
E|--------------------99--------------------------------x3-----------------|

yeah. i'm pretty sure thats 98% correct! i worked really long and really hard on this 
so please rate it!
Comments