Phantom Planet - Guest Chords & Tabs

 

Guest Chords & Tabs

Phantom Planet Chords & Tabs

Version: 1 Type: Tab 0 ratings
1 star 2 stars 3 stars 4 stars 5 stars
comments

Guest Tab

   
-------------------------------------------------------------------------------
			     THE GUEST - Phantom Planet
-------------------------------------------------------------------------------
Tabbed by: Tony V.
Email: tsvaldez@cox.net

Tuning: Standard


So, hi there. I'm Tony and this is my first tab submition. Don't worry, I've
got a damn good ear. I've thought about submitting a few tabs before for other
songs, but I'm usually just too lazy. Anyway I've got the complete intro down
and the rhythm guitar for the rest of the song. I haven't done the lead guitar
yet, but I'll probably finish and update that soon. Enjoy!

P.S.: Just listen to it for the timing and strum pattern.

INTRO
Guitar 1
e|-------------------|
B|----14-------------|
G|----------14----14-|
D|-------14----12----|
A|-12----------------|
E|-------------------|

On 3rd time, add this:

Guitar 2
e|-9\6-4\0---------------|
B|---------3-----3-2-----|
G|-------------2-----2---|
D|-----------4---------2-| \
A|-----------------------|  \
E|-----------------------|   \
                               Repeat these bars once as rhythm comes in
e|-9\6-4\0---------------|   /
B|---------3-----3-2-----|  /
G|-------------2---2-----| /
D|-----------4-----2-----|
A|-----------------------|
E|-----------------------|

Guitar 1 (Main Rhythm)

e|------0000-----------|
B|-2222-0000-3333-2222-|
G|-2222-1111-2222-2222-|
D|-2222-2222-0000-2222-|
A|-0000-2222-0000-0000-|   2x
E|------0000-----------|

Verse 1
(same as main rhythm, plus palm-muting)
e|------0000-----------|
B|-2222-0000-3333-2222-|
G|-2222-1111-2222-2222-|
D|-2222-2222-0000-2222-|
A|-0000-2222-0000-0000-|   4x
E|------0000-----------|
p.m.. .................
[ Tab from: http://www.guitartabs.cc/tabs/p/phantom_planet/guest_tab.html ]
Chorus
e|-0000-2222----------|
B|-0000-2222-33333333-|
G|-1111-2222-22222222-|
D|-2222-4444-00000000-|
A|-2222-4444-00000000-|    4x
E|-0000-2222----------|

Main Rhythm
e|------0000-----------|
B|-2222-0000-3333-2222-|
G|-2222-1111-2222-2222-|
D|-2222-2222-0000-2222-|
A|-0000-2222-0000-0000-|   2x
E|------0000-----------|

Verse 2
e|------0000-----------|
B|-2222-0000-3333-2222-|
G|-2222-1111-2222-2222-|
D|-2222-2222-0000-2222-|
A|-0000-2222-0000-0000-|   2x
E|------0000-----------|
p.m....................

Chorus
e|-0000-2222----------|
B|-0000-2222-33333333-|
G|-1111-2222-22222222-|
D|-2222-4444-00000000-|
A|-2222-4444-00000000-|    4x
E|-0000-2222----------|

Main Rhythm
e|------0000-----------|
B|-2222-0000-3333-2222-|
G|-2222-1111-2222-2222-|
D|-2222-2222-0000-2222-|
A|-0000-2222-0000-0000-|   4x
E|------0000-----------|

Chorus
e|-0000-2222----------|
B|-0000-2222-33333333-|
G|-1111-2222-22222222-|
D|-2222-4444-00000000-|
A|-2222-4444-00000000-|    2x
E|-0000-2222----------|
p.m...................

Chorus
e|-0000-2222----------|
B|-0000-2222-33333333-|
G|-1111-2222-22222222-|
D|-2222-4444-00000000-|
A|-2222-4444-00000000-|
E|-0000-2222----------|
p.m.........

Chorus
e|-0000-2222----------|
B|-0000-2222-33333333-|
G|-1111-2222-22222222-|
D|-2222-4444-00000000-|
A|-2222-4444-00000000-|
E|-0000-2222----------|

Everything stops but Guitar 1:
e|-------------------|
B|----14-------------|
G|----------14-------| let last note ring...
D|-------14----------|
A|-12----------------|
E|-------------------|

THE END!

| /  slide up
| \  slide down
| h  hammer-on
| p  pull-off
| ~  vibrato
| +  harmonic
| x  Mute note
===============================================================================
Comments