Phantom Planet - California Chords & Tabs

 

California Chords & Tabs

Phantom Planet Chords & Tabs

Version: 8 Type: Tab 0 ratings
1 star 2 stars 3 stars 4 stars 5 stars
comments

California Tab

This is better than the other intro 
[ Tab from: http://www.guitartabs.cc/tabs/p/phantom_planet/california_tab_ver_8.html ]
e--------------------------------------------
B--------------------------------------------
G-------6-4-6-----4-6-4-6--------6-4-6-8-----
D---4-6---------6------------4-6---------9---
A--------------------------------------------
E--------------------------------------------


e--------------------------------------------
B--------------------------------------------
G--------------------------------------------
D--6-----------------------------------------
A----99--77--9/11----------------------------
E--------------------------------------------
Comments