Phantom Planet - California Chords & Tabs

 

California Chords & Tabs

Phantom Planet Chords & Tabs

Version: 12 Type: Tab 0 ratings
1 star 2 stars 3 stars 4 stars 5 stars
comments

California Tab

Phantom Planet California
From the album (I don't think its released yet)
Tabbed by Liam 
Email: guitar_rocker_47@hotmail.com
Tuning standard

Piano intro (piano transcribed for guitar)
E|---7-9-7-9-----7-9-7-9-----7-9-7-9---11-9-|----------------------------------|
B|-9----------9------------9----------------|-5--3-3-1-1-3--5---5--3-3-1-1-3-5-|
G|------------------------------------------|----------------------------------|
D|------------------------------------------|----------------------------------|
A|------------------------------------------|----------------------------------|
E|------------------------------------------|----------------------------------|

Verse
E|-----------------------------0-0-0-0--------0-0-0-0--------0-0-0-0-|
B|-5--5--5-5-5-5--5-5-5--2-2-x-0-0-0-0--2-2-x-0-0-0-0--2-2-x-0-0-0-0-|
G|-6--6--6-6-6-6--6-6-6--2-2-x-1-1-1-1--2-2-x-1-1-1-1--2-2-x-1-1-1-1-|
D|-6--6--6-6-6-6--6-6-6--2-2-x-2-2-2-2--2-2-x-2-2-2-2--2-2-x-2-2-2-2-|
A|-4--4--4-4-4-4--4-4-4--0-0-x-2-2-2-2--0-0-x-2-2-2-2--0-0-x-2-2-2-2-|
E|-----------------------------0-0-0-0-----------------------0-0-0-0-|

Pre Chorus
E|------------------|
B|-0-0-0-0-0-0-0-0--|
G|-2-2-2-2-2-2-2-2--|
D|-2-2-2-2-2-2-2-2--|
A|-0-0-0-0-0-0-0-0--|
E|------------------|
[ Tab from: http://www.guitartabs.cc/tabs/p/phantom_planet/california_tab_ver_12.html ]
Chorus
E|-0-0-0-0-0-0-0-0--------------------0-0-0-0-0-0-0-0------------------|
B|-0-0-0-0-0-0-0-0--2-2-2-2-2-2-2-2---0-0-0-0-0-0-0-0--2-2-2-2-2-2-2-2-|
G|-1-1-1-1-1-1-1-1--2-2-2-2-2-2-2-2---1-1-1-1-1-1-1-1--2-2-2-2-2-2-2-2-|
D|-2-2-2-2-2-2-2-2--2-2-2-2-2-2-2-2---2-2-2-2-2-2-2-2--2-2-2-2-2-2-2-2-|
A|-2-2-2-2-2-2-2-2--0-0-0-0-0-0-0-0---2-2-2-2-2-2-2-2--0-0-0-0-0-0-0-0-|
E|-0-0-0-0-0-0-0-0--------------------0-0-0-0-0-0-0-0------------------|

Solo
E|---7-9-7-9-----7-9-7-9-----7-9-7-9---11-9-|----------------------------------|
B|-9----------9------------9----------------|----------------------------------|
G|------------------------------------------|----------------------------------|
D|------------------------------------------|-6--4-4-2-2-4--6---6--4-4-2-2-4-6-|
A|------------------------------------------|----------------------------------|
E|------------------------------------------|----------------------------------|

Bridge
E|-5-4-2-0-4-2-0-------0-2-5-4-2-0-4-2-0-------0-2-------|
B|---------------4-2-4-------------------4-2-4-----2-4-5-|
G|-------------------------------------------------------|
D|-------------------------------------------------------|
A|-------------------------------------------------------|
E|-------------------------------------------------------|

End (piano)
E|---7-9-7-9--|
B|-9----------|
G|------------|
D|------------|
A|------------|
E|------------|

Order

Piano intro (with verse played in background by guitar 2)
Verse x2
Pre Chorus
Chorus
Verse x2
Pre Chorus
Chorus x2
Solo x2 (With verse played x2 by guitar 2 in background)
Bridge (with guitar 2 playing the open high e string a lot in background)
Chorus x3
Comments