Phantom Planet - California Chords & Tabs

 

California Chords & Tabs

Phantom Planet Chords & Tabs

Version: 1 Type: Tab 0 ratings
1 star 2 stars 3 stars 4 stars 5 stars
comments

California Tab

   
phantom planet - California
[ Tab from: http://www.guitartabs.cc/tabs/p/phantom_planet/california_tab.html ]
This is the piano part
    Cm                      A            E 
e|-------------------------------------6----|
b|-----7-9-7-9-----7-9-7-9-----7-9-7-9---7--|
G|--8-----------8-----------8---------------|
D|------------------------------------------|
A|------------------------------------------|
E|------------------------------------------|

         A      E        A      E 
e|---------------------------------|
b|---------------------------------|
G|-8--6-6\4-4-6/8--8--6-6\4-4-6-4--|
D|---------------------------------|
A|---------------------------------|
E|---------------------------------|
Comments