Phantom Planet - 1st Things 1st Chords & Tabs

 

1st Things 1st Chords & Tabs

Phantom Planet Chords & Tabs

Version: 1 Type: Tab 0 ratings
1 star 2 stars 3 stars 4 stars 5 stars
comments

1st Things 1st Tab

Phantom Planet- 1st Things 1st
Tuning: Standard
Tabbed by: Angie Lime
e-mail: lonelyday117@aol.com

It's probably not 100% tabbed or correct, and I don't have the guitar 2 part for the 2nd
verse, but it sounds accurate.

Intro:

e|-------------------------1------0------|
B|-6-5-6-5---1------3------1------0------|
G|-----------2------2------2------1------|
D|-----------3------3------1------2------|
A|-------------------------2-------------|
E|-------------------------0-------------|

Main riff:
e|----------------------------------|
B|----------------------------------|
G|--------------7-4-7--9-9----------|
D|--5-2-5--7-7--7-4-7--9-9----------|
A|--5-2-5--7-7--5-2-5--7-7----------|
E|--3-0-3--5-5----------------------|

Chorus:(you want some time with your friends...)
e|---------------------------------------------------------|
B|---------------------------------------------------------|
G|-55555555-----------44444444-------------------77777777--|
D|-55555555--55555555-44444444-33333333-77777777-77777777--|
A|-33333333--55555555-22222222-33333333-77777777-55555555--|
E|-----------33333333----------11111111-55555555-----------|
[ Tab from: http://www.guitartabs.cc/tabs/p/phantom_planet/1st_things_1st_tab.html ]
 1st Things 1st!!!
e|--------------------------|
B|--------------------------|
G|--------------------------|
D|--22-22-22----------------|
A|--00-00-00----------------|
E|--------------------------|

solo:
e|-------------------------------------------------------|
B|-------------3-5-3h5-----------------------------------|
G|--------7-4--------------------------------------------|
D|--5-7-5--------------------7-7-5-7--7-7-5-7------------|
A|--------------------7-5-7--------------------5-7-7-5-7-|
E|-------------------------------------------------------|

for the solo after the 2nd chorus, play ^that^ then add (x2):
e|------------------------------------------------------------|
B|-8-8-8-8-5-5-5----------------------------------------------|
G|----------------7-7-7-7-4-4-4-------------------------------|
D|-------------------------------7-7-7-7-5-5-5--7p5---7p5-----|
A|--------------------------------------------------5-----5---|
E|------------------------------------------------------------|

Intro
Verse 1 (main riff)
Chorus
Solo
Verse 2 (main riff)
Chorus
Solo +
Chorus


End:
---------------------|
-------------3-5-3h5-|
--------7-4----------|
-5-7-5---------------|
---------------------|
---------------------|
Comments