Phair Liz - Why Cant I Chords & Tabs

 

Why Cant I Chords & Tabs

Phair Liz Chords & Tabs

Version: 2 Type: Tab 0 ratings
1 star 2 stars 3 stars 4 stars 5 stars
comments

Why Cant I Tab

   
Artist: Liz Phair
Song: Why Cant I
tabbed by: Elise Davis, wankaaaa@aol.com
 This is my first tab, but i know its accurate- so enjoy!
  
VERSE
 
 E-------------------------------------------------------------------
 B-------------------------------------------------------------------
 G-------------------------------------------------------------------
 D-4-4-4-4-4-4-4-4-4-4-4-4-4-4-4-4-4-4-4-4-4-4-4-4-4-4-4-4-4-4-4-4-4
 A-2-2-2-2-2-2-2-2-2-2-2-2-2-2-2-2-1-1-1-1-1-1-1-1-1-1-1-1-1-1-1-1-1
 E-------------------------------------------------------------------

   Get a load of me get a load of you, walking down the street and i

 E--------4-4-4-4-4-4-4-4-4-----------------------------------------
 B--------4-4-4-4-4-4-4-4-4-----------------------------------------
 G--------4-4-4-4-4-4-4-4-4-1-1-1-1-1-1-1-1-1-1-1-1-1-1-1-1-1--------
 D-4-4-4--6-6-6-6-6-6-6-6-6-2-2-2-2-2-2-2-2-2-2-2-2-2-2-2-2-2-
 A-1-1-1--6-6-6-6-6-6-6-6-6-2-2-2-2-2-2-2-2-2-2-2-2-2-2-2-2-2-
 E-------------------------------------------------------------------

   hardly know you,          just like we were meant to be


  YOU REPEAT THAT ON A THE VERSES- SO NEXT SHE SINGS.........

    holding hands with you when were out at night, got a girlfriend you say it isnt right, and ive got someone waiting too,

then...

PRE-CHORUS
[ Tab from: http://www.guitartabs.cc/tabs/p/phair_liz/why_cant_i_tab_ver_2.html ]
 E-------------------------------2-2-2-2-2-2-2-2-2-2-2-2-2-2-2-2-2-
 B-------------------------------2-2-2-2-2-2-2-2-2-2-2-2-2-2-2-2-2-
 G-1-1-1-1-1-1-1-1-1-1-1-1-1-1-1-3-3-3-3-3-3-3-3-3-3-3-3-3-3-3-3-3-
 D-2-2-2-2-2-2-2-2-2-2-2-2-2-2-2-4-4-4-4-4-4-4-4-4-4-4-4-4-4-4-4-4-
 A-2-2-2-2-2-2-2-2-2-2-2-2-2-2-2-4-4-4-4-4-4-4-4-4-4-4-4-4-4-4-4-4-
 E-------------------------------2-2-2-2-2-2-2-2-2-2-2-2-2-2-2-2-2-
   What this is just the beggining, were already wet and were gunnu 

 E-2-2-2-2-2-2-2-
 B-2-2-2-2-2-2-2-
 G-3-3-3-3-3-3-3-
 D-4-4-4-4-4-4-4-
 A-4-4-4-4-4-4-4-
 E-2-2-2-2-2-2-2-
    go swimming

CHORUS

 E-4-4-4-----------------------------2-2-2-2-2-4-4-4---------------
 B-4-4-4-----------------------------2-2-2-2-2-4-4-4--------------
 G-4-4-4-1-1-1-1---------------------3-3-3-3-3-4-4-4-1-1-1-------
 D-6-6-6-2-2-2-2-4-4-4-4-4-4-4-4-4-4-4-4-4-4-4-6-6-6-2-2-2-4-4-4-
 A-6-6-6-2-2-2-2-2-2-2-2-2-2-2-2-2-2-4-4-4-4-4-6-6-6-2-2-2-2-2-2-
 E-----------------------------------2-2-2-2-2-------------

   Why cant i breath whenever i think about you, why cant i speak

 E-------------2-2-2-2-2-2-2------------------------------------
 B-------------2-2-2-2-2-2-2------------------------------------
 G-------------3-3-3-3-3-3-3-1-1-1-1-1-1-1-1-1-1-1-1-1-1-1-1-1-1
 D-4-4-4-4-4-4-4-4-4-4-4-4-4-2-2-2-2-2-2-2-2-2-2-2-2-2-2-2-2-2-2
 A-2-2-2-2-2-2-4-4-4-4-4-4-4-2-2-2-2-2-2-2-2-2-2-2-2-2-2-2-2-2-2
 E-------------2-2-2-2-2-2-2------------------------------------
   
    whenever i talk about you, its inevitable, its the fact that

 E--------2-2-2-2-2-2-2-2-2-2-2-2-2-2-2-
 B--------2-2-2-2-2-2-2-2-2-2-2-2-2-2-2-
 G-1-1-1--3-3-3-3-3-3-3-3-3-3-3-3-3-3-3-
 D-2-2-2--4-4-4-4-4-4-4-4-4-4-4-4-4-4-4-
 A-2-2-2--4-4-4-4-4-4-4-4-4-4-4-4-4-4-4-
 E--------2-2-2-2-2-2-2-2-2-2-2-2-2-2-2-        then you start over 
                                                 the beggining of the
   where gunnu get down to it so tell me          chourus again, and 
                                                  repeat the top part    
                                                  on the verses!


     and thats it! this is a great song, if you have any questions email me at wankaaaa@aol.com

 
Comments