Ph8 - I Go Off Chords & Tabs

 

I Go Off Chords & Tabs

Ph8 Chords & Tabs

Version: 2 Type: Tab 0 ratings
1 star 2 stars 3 stars 4 stars 5 stars
comments

I Go Off Tab

Author/Artist: Ph8
Title: I Go Off
Transcribed by: Nando
Email: rivaz@hotmail.com

I Go Off is originally played in normal tuning, but now played at half-step
down. This is also the way Nando plays it. There are two other guitarist who
play slightly different.

----------------------------------|-------------------------------------------|
----------------------------------|-------------------------------------------|
----------------------------------|-------------------------------------------|
-----4-----5---5-----4-----2-2h4p0|-----4-----5---5-----4-----2-2h4-2h4-------|
-2-2---2-----2---------0----------|-2-2---2-----2---------0-------------------|
-----------------3-3--------------|-----------------3-3-----------------------|
 Clean

----------------------------------|-------------------------------------------|
----------------------------------|-------------------------------------------|
----------------------------------|-----------5---5-----------------2h4-------|
-----4-----5---5-----4-----2-2h4p0|-----4-------2-------4-----2-2h4-----------|
-2-2---2-----2---------0----------|-2-2---2---------------0-------------------|
-----------------3-3--------------|-----------------3-3-----------------------|
 Clean

------------------------------------------------------------------------------|
------------------------------------------------------------------------------|
------------------------------------------------------------------------------|
-----xx4--xx5-xx5-----xx5--xx3-xx3--------------------------------------------|
-0-2-xx2--xx3-xx3-0-3-xx5--xx1-xx1--------------------------------------------|
-0-2-xx2--xx3-xx3-0-3-xx3--xx1-xx1--------------------------------------------|
 Distortion

------------------------------------------------------------------------------|
-----------8---------------------------------8--------------------------------|
-----8---8---8-------9-----11---11-----8---8---8-------9-----11------9h11-----|
-9-9---9-------9-9-9---9------9----9-9---9-------9-9-9---9------9h11----------|
------------------------------------------------------------------------------|
------------------------------------------------------------------------------|
 Interlude
[ Tab from: http://www.guitartabs.cc/tabs/p/ph8/i_go_off_tab_ver_2.html ]
------------------------------------------------------------------------------|
-----------8---------------------------------8--------------------------------|
-----8---8---8-------9-----11---11-----8---8---8---9-9----11b12b11------------|
-9-9---9-------9-9-9---9------9----9-9---9-------9-9-9------------------------|
------------------------------------------------------------------------------|
------------------------------------------------------------------------------|
 Interlude

------------------------------------|-----------------------------------------|
------------------------------------|-----------------------------------------|
------------------------------------|---------------------------------2h4-----|
-----4-----5---5-----4-------2-2h4p0|-----4-----5---5-----4-----2-2h4---------|
-2-2---2-2---2---------0-0----------|-2-2---2-2---2---------0-0---------------|
-----------------3-3----------------|-----------------3-3---------------------|
 Distortion/Muted

------------------------------------|-----------------------------------------|
------------------------------------|-----------------------------------------|
------------------------------------|-4---------------------------------------|
-----4-----5---5-----4-------2-2h4p0|-4---------5---7-------------------------|
-2-2---2-2---2---------0-0----------|-2---------5---7-------------------------|
-----------------3-3----------------|-2---------3---5-------------------------|
 Still Muted                          Open

------------------------------------------------------------------------------|
------------------------------------------------------------------------------|
------------------------------------------------------------------------------|
------------------------------------------------------------------------------|
-2-3-2-2-3-2-2-3-2-3-2-2-3p2p0------------------------------------------------|
------------------------------------------------------------------------------|


------------------------------------------------------------------------------|
------------------------------------------------------------------------------|
------------------------------------------------------------------------------|
-----xx4---5-5-----xx5---3-3--------------------------------------------------|
-0-2-xx2---3-3-0-3-xx5---1-1--------------------------------------------------|
-0-2-xx2---3-3-0-3-xx3---1-1--------------------------------------------------|
 Last 4 heavy parts

------------------------------------------------------------------------------|
------------------------------------------------------------------------------|
-------------------------------2h4-2h4~~~~------------------------------------|
-----4-----5---5-----4-----2h4------------------------------------------------|
-2-2---2-----2---------0------------------------------------------------------|
-----------------3-3----------------------------------------------------------|
 Outro                                 Let ring...
Comments