Pfr - Pour Me Out Chords & Tabs

 

Pour Me Out Chords & Tabs

Pfr Chords & Tabs

Version: 1 Type: Bass Tab 0 ratings
1 star 2 stars 3 stars 4 stars 5 stars
comments

Pour Me Out Bass Tab

   
"Pour Me Out"
by PfR
Original song (c) 1996 Sparrow Song/ Winning Pitch Music (BMI)/ Adm. by BMI Christian Music Pub.
Toonman (bass4jesus@aol.com)

Intro:
D-0---2-----------------------0-|
A-----------------0-------2-----|
E---------4---------------------|
[ Tab from: http://www.guitartabs.cc/tabs/p/pfr/pour_me_out_btab.html ]
Verse:
D                                                             |
A-----------------------------------------------0-0---0-------|
E-0---0-------0-0---0-------0-2-3---3-------3-------------3-2-|

                                                            2x
D------------------------------------------------------0---2-|
A----------------------------2---2---2---2---3-3---3---------|
E-0---0-------0-0---0------0---------------------------------|

Bridge:                                          2x
D-0-0-0-0-0-0-0-0-----------------|----------------|
Comments