Pflasterstein - Hallo Baum Chords & Tabs

 

Hallo Baum Chords & Tabs

Pflasterstein Chords & Tabs

Version: 2 Type: Tab 0 ratings
1 star 2 stars 3 stars 4 stars 5 stars
comments

Hallo Baum Tab

Artist: PFLASTERSTEIN
Title: Hallo Baum
Words: Christoph D?ll, Nils Ritter
Transcribed by: Nils Ritter


(Intro -> Play the first Riff without vocals)

e|---------------------------------|
h|---------------------------------|
G|---------------------------------|
D|---0---1---0---1---0---1---0---1-|
A|---------------------------------|
E|-3---3---3---3---3---3---3---3---|

Da steht ein Baum in meinem Garten,
den mag ich ganz gern.
Denn dieser Baum
ist nicht gr?n.
[ Tab from: http://www.guitartabs.cc/tabs/p/pflasterstein/hallo_baum_tab_ver_2.html ]
e|--------------------------------------------|
h|--------------------------------------------|
G|--------------------------------------------|
D|-----4----------4----------4----------4-----|
A|---3---3------3---3------3---3------3---3---|
E|-1-------1--1-------1--1-------1--1-------1-|

Baum du bist mein bester Freund,
du bist nicht allein in dieser Zeit.
Wo sind deine Bl?tter? Was haben sie getan?

e|---0---1---3-|
h|-------------|
G|-------------|
D|-3---3---0---|
A|-------------|
E|-------------|

Baum in meinem Garten.
Baum in meinem Garten.
Baum in meinem Garten.
Baum in meinem Garten.
Baum...

~~~~~~~~~~~~~~~~~~~~~~~~~~~~~~~
(C) Nils Ritter, Christoph D?ll
http://www.sonic-23.de
~~~~~~~~~~~~~~~~~~~~~~~~~~~~~~~
Comments