Petty Tom - You Got Lucky Chords & Tabs


You Got Lucky Chords & Tabs

Petty Tom Chords & Tabs

Version: 1 Type: Tab 0 ratings
1 star 2 stars 3 stars 4 stars 5 stars

You Got Lucky Tab

#----------------------------------PLEASE NOTE---------------------------------#
#This file is the author's own work and represents their interpretation of the #
#song. You may only use this file for private study, scholarship, or research. #
Date: Fri, 29 Sep 95 14:01:16 EDT
From: Winston Campbell 
Subject: YOU GOT LUCKY by Tom Petty & The Heartbreakers

You Got Lucky
(words & music by Tom Petty and Mike Campbell)

Basically the intro synth plays:

   Am                       Dm          G

E -5--5--5--5--5--5--5--5-|-5--5--5--5--3--3--3--3-|
B -5--5--5--5--5--5--5--5-|-6--6--6--6--3--3--3--3-|
G -5--5--5--5--5--5--5--5-|-7--7--7--7--4--4--4--4-|
D -7--7--7--7--7--7--7--7-|-------------5--5--5--5-|
A ------------------------|------------------------|
E ------------------------|------------------------|

The guitar solo is (during the intro chords):

   Am                    Dm     G         Am                 Dm      G
[ Tab from: ]
E --------------------------------------|---------------------------------|
B --------------------------------------|---------------------------------|
G --------------------------------------|---------------------------------|
D ------5--7----------------------------|------5--7-----------------------|
A -7~---------7~---5--3--5~---3-2--3--5-|-7~---------7~---5--3--2--0------|
E --------------------------------------|----------------------------3~~--|

The (~) means to sustain the note, the (~~) means to sustain and keep it
warply tremoloed.

After this the song pretty much goes on through the intro chords, the final
Mike Campbell (sorta) solo is:

   Am                    Dm     G       Am                   Dm   G

E ------------------------------------|-----------------------------|
B ------------------------------------|-----------------------------|
G ------------------------------------|----------------5--7--7b-----|
D ------5--7--------------------------|------5--7-------------------|
A -7~---------7~---5--3--5~-----------|-7~---------7~---------------|
E ------------------------------------|-----------------------------|

The song fades out on this and that is about it.